» » »

Usher - U Remind Me Tabs

Artists:  A B C D E F G H I J K L M N O P Q R S T U V W X Y Z # 

U Remind Me Tabs

(ver. 1) Click to play this song!
Usher
 Rating:
4.3/5 (6 votes)

 U Remind Me lessons Tabs too difficult? Try these video lessons and learn fast
 
                [Intro]
e|--7-10-10-10-7--------------------|
B|--8------------10-8----10-7~-8-8~-|
G|--7-----------------9~------------|
D|--9-------------------------------|
A|--7-------------------------------|
E|----------------------------------|

e|--10-10-10-7-----------------10--10-|
B|-------------10-8--5--12-10~-~------|
G|------------------------------------|
D|------------------------------------|
A|------------------------------------|
E|------------------------------------|
             
Submit corrections


        U Remind Me lessons Hard to play? Try these video lessons and learn fast U Remind Me lessons
        
↑ Back to top | Tablatures and chords for acoustic guitar and electric guitar, ukulele, drums are parodies/interpretations of the original songs. You may use it for private study, scholarship, research or language learning purposes only