Home » U » Used »

Used - Overdose Tabs

Artists:  A B C D E F G H I J K L M N O P Q R S T U V W X Y Z # 

Overdose Tabs

(ver. 1) Click to play this song!
Used
D Tuning (DADGBe)

INTRO
     F      G
E------------------------------|
B------------------------------|
G----4------7------------------|
D----3-x8---5-x8---------------|
A----3------5------------------|
D----3------5------------------|

VERSE
     F      G
E------------------------------|
B------------------------------|
G----4------7------------------|
D----3-x8---5-x8---------------|
A----3------5------------------|
D----3------5------------------|

F                    G
Does it start all at once?
                       F
 Or come as slow as can be.
                         G
 It's not about you and me
F                       G
 And never mind what it costs
                           F
 At least it's not make believe
                   G
 We can get it for free

BRIDGE
    Am      F      C     G
E----0---------------------------|
B----1---------------------------|
G----2------4------5------7------|
D----2------3------5------5------|
A----0------3------3------5------|
D----x------3------x------5------|

         Am
 But to get love
                 F
 You have got to give love
                C
 Somehow I got your love
                 G
 Was it meant to be?

CHORUS
    C     G     Am     F
E------------------------------|
B----------------1-------------|
G---5-----7------2-----5-------|
D---5-----5------2-----3-------|
A---3-----5------0-----3-------|
D---x-----5------x-----3-------|

C
Your love
    G
 Is my drug
      Am
 I've overdosed
     F
 I'm right where I'm supposed to be
      C
 Yeah your love
    G
 Is fatal
             Am
 Planning an overdose
    F
 An overdose

VERSE 2

     F      G
E------------------------------|
B------------------------------|
G----4------7------------------|
D----3-x8---5-x8---------------|
A----3------5------------------|
D----3------5------------------|

 Then just like in the books
 'The Voices' spoke unto me
 Their words as clear as can be
 They Say: no one can take it away
 Nothing can come in-between
 can't steal something that's free, yeah

(BRIDGE)
(CHORUS)

VERSE 3

     F      G
E------------------------------|
B------------------------------|
G----4------7------------------|
D----3-x8---5-x8---------------|
A----3------5------------------|
D----3------5------------------|


 And in the end I found peace
 Don't know why you would choose me
 And in the end I found peace
 My darling drug you kill me

 Don't think we're meant to go it alone
 I could be wrong but I'll wait and see
 I get caught up when you're singing along
 An overdose would come naturally
 It might sound mean but don't get me wrong
 If I'm a slave, I don't wanna be free
 I get f**ked up when you sing along
 An overdose would come naturally
            
Submit corrections

↑ Back to top | Tablatures and chords for acoustic guitar and electric guitar, ukulele, drums are parodies/interpretations of the original songs. You may use it for private study, scholarship, research or language learning purposes only