» » »

Uriah Heep - Blind Eye Bass

Artists:  A B C D E F G H I J K L M N O P Q R S T U V W X Y Z # 

Blind Eye Bass

(ver. 1) Click to play this song!
Uriah Heep
 Rating:
4.3/5 (19 votes)

 Blind Eye lessons Tabs too difficult? Try these video lessons and learn fast
 
                Gtr I (E A D G) - 'Gary Thain - Bass'

    [Intro 1]
    Q=164
    12/8
    Gtr I
     Q  E E E E Q  E E E E   Q  E E E E Q  E E E E   Q  E E E E Q  E E E E
G||------------------------|-----------------------|------------------------|
D||o-7----7---7-7----7---7-|-5----5---5-5----5---5-|-3----3---3-3----3---3--|
A||o----7---7------7---7---|----5---5------5---5---|----3---3------3---3----|
E||------------------------|-----------------------|------------------------|


   Q  E E E E Q  E E E E     H.      +H.        +H.      +H.
G|------------------------||------------------|-----------------||
D|-5----5---5-5----5---5-o||-7-------(7)------|-(7)------(7)----||
A|----5---5------5---5---o||------------------|-----------------||
E|------------------------||------------------|-----------------||


  [Intro 2]
   Q  E E E E Q  E E E E   Q  E E E E Q  E E E E   Q  E E E E Q  E E E E
G|-----------------------|-----------------------|------------------------|
D|-7----7---7-7----7---7-|-5----5---5-5----5---5-|-7----7---7-7----7---7--|
A|----7---7------7---7---|----5---5------5---5---|----7---7------7---7----|
E|-----------------------|-----------------------|------------------------|


   Q  E E E E Q  E E E E   Q  E E E E Q  E E E E   Q  E E E E Q  E E E E
G|-----------------------|-----------------------|------------------------|
D|---------------------5-|-7----7---7-7----7---7-|-5----5---5-5----5---5--|
A|-5--5-5-5-5-5--5-5-7---|----7---7------7---7---|----5---5------5---5----|
E|-----------------------|-----------------------|------------------------|


   Q.   E E E Q  E E E E   Q.   E E E Q  E E E E   Q.   E E E Q  E E E E
G|--------5-7-9--9-------|--------5-7-9--9-------|--------5-7-9--9--------|
D|-7----7--------------6-|-7----7--------------6-|-7----7--------------6--|
A|-----------------7-9---|-----------------7-9---|-----------------7-9----|
E|-----------------------|-----------------------|------------------------|


                                                   [1st Verse]
   Q.   E E E Q  E E E E   Q  E E E E Q  E E E E    Q  E E E E Q  E E E E
G|-----------------------|-----------------------||------------------------|
D|-7----7---7-7----7---7-|-7----7---7-7----7---7-||-7----7---7-7----7---7--|
A|--------7------7---7---|----7---7------7---7---||----7---7------7---7----|
E|-----------------------|-----------------------||------------------------|


   Q  E E E E Q  E E E E   Q  E E E E Q  E E E E   Q  E E E E Q  E E E E
G|-----------------------|-----------------------|------------------------|
D|-7----7---7-7--7-----5-|-7----7---7-7----7---7-|-7--7-7-7-7-7----7---7--|
A|----7---7--------5-7---|----7---7------7---7---|---------------7---7----|
E|-----------------------|-----------------------|------------------------|


   Q  E E E E Q  E E E E   Q  E E E E Q.   E E E   Q.   E E E Q.   E E E
G|-----------------------|-----------------------|------------------------|
D|-7----7---7----------5-|-7----7---7-7----7---4-|-5----5---5-5--------5--|
A|----7---7---5--5-5-7---|----7---7----------7---|--------5--------5-7----|
E|-----------------------|-----------------------|------------------------|


   Q  E E E E Q.   E E E   Q.   E E E Q  E E E E   Q  E E E E Q  E E E E
G|-----------------------|-----------------------|------------------------|
D|-7----7---7-7----7---4-|-5----5---5-5----5---5-|-7--7-7---7-7----7---7--|
A|----7---7----------7---|--------5------5---5---|--------7------7---7----|
E|-----------------------|-----------------------|------------------------|


                           [Chorus]
   Q  E E E E Q  E E E E    Q  E E E E Q  E E E E   Q  E Q  E Q  E Q  E
G|-----------------------||-----------------------|---------------------|
D|-7----7---7-7----7---7-||-7----7---7-7----7---7-|---------------------|
A|----7---7------7---7---||----7---7------7---7---|---------------------|
E|-----------------------||-----------------------|-7--7-7--7-7--7-7--7-|


   Q.   +E  E E +E  E E E E E   Q  E Q  E Q  E Q  E   Q  E Q  E Q  E Q  E
G|----------------------------|---------------------|---------------------|
D|----------------------------|-5--5-5--5-5--5-5--5-|-7----7----7----7----|
A|-5----(5)-5-5-(5)-5-5-5-5-5-|---------------------|----7----7----7------|
E|----------------------------|---------------------|-------------------5-|


   Q  E Q  E Q  E Q  E   Q  E Q  E Q  E Q  E   Q  E Q  E Q  E Q  E
G|---------------------|---------------------|---------------------||
D|---------------------|---------------------|---------------------||
A|---------------------|-5--5-5--5-5--5-5--5-|-7--7-7--7-7--7-7--7-||
E|-7--7-7--7-7--7-7--7-|---------------------|---------------------||


  [Interlude]
   Q  E E E E Q  E E E E   Q  E E E E Q  E E E E   Q  E E E E Q  E E E E
G|-----------------------|-----------------------|-----------------------|
D|-7----7---7-7----7---7-|-5----5---5-5----5---5-|-7----7---7-7----7---7-|
A|----7---7------7---7---|----5---5------5---5---|----7---7------7---7---|
E|-----------------------|-----------------------|-----------------------|


   Q.   E E E Q.   E E E   Q  E E E E Q  E E E E   Q  E E E E Q  E E E E
G|-----------------------|-----------------------|------------------------|
D|---------------------5-|-7----7---7-7----7---7-|-5----5---5-5----5---5--|
A|-5----5-5-5-5----5-7---|----7---7------7---7---|----5---5------5---5----|
E|-----------------------|-----------------------|------------------------|


   Q.   E E E Q  E E E E   Q.   E E E Q  E E E E   Q.   E E E Q  E E E E
G|--------5-7-9--9-------|--------5-7-9--9-------|--------5-7-9--9--------|
D|-7----7--------------6-|-7----7--------------6-|-7----7--------------6--|
A|-----------------7-9---|-----------------7-9---|-----------------7-9----|
E|-----------------------|-----------------------|------------------------|


   Q.   E E E Q  E E E E   Q  E E E E Q  E E E E   Q  E E E E Q  E E E E
G|-----------------------|-----------------------|------------------------|
D|-7----7---7-7----7---7-|-7----7---7-7----7---7-|-7----7---7-7----7---7--|
A|--------7------7---7---|----7---7------7---7---|----7---7------7---7----|
E|-----------------------|-----------------------|------------------------|


   Q.   E E E Q  E E E E   Q  E E E E Q  E E E E   Q  E E E E Q  E E E E
G|-----------------------|-----------------------|------------------------|
D|-5----5---5-5----5---5-|-7----7---7-7----7---7-|---------------------5--|
A|--------5------5---5---|----7---7------7---7---|-5--5-5-5-5-5--5-5-7----|
E|-----------------------|-----------------------|------------------------|


   Q  E E E E Q  E E E E   Q  E E E E Q  E E E E   Q.   E E E Q.   E E E
G|-----------------------|-----------------------|--------5-7-9-----------|
D|-7----7---7-7----7---7-|-5----5---5-5----5---5-|-7----7--------------6--|
A|----7---7------7---7---|----5---5------5---5---|-----------------7-9----|
E|-----------------------|-----------------------|------------------------|


   Q.   E E E Q.   E E E   Q.   E E E Q.   E E E   Q.   E E E Q  E E E E
G|--------5-7-9----------|--------5-7-9----------|------------------------|
D|-7----7--------------6-|-7----7--------------6-|-7----7---7-7----7---7--|
A|-----------------7-9---|-----------------7-9---|--------7------7---7----|
E|-----------------------|-----------------------|------------------------|


                           [Chorus]
   Q  E E E E Q  E E E E    Q  E E E E Q  E E E E   Q  E Q  E E E E E E E
G|-----------------------||-----------------------|-----------------------|
D|-7----7---7-7----7---7-||-7--7-7-7-7-7--7-7-7-7-|-----------------------|
A|----7---7------7---7---||-----------------------|-----------------------|
E|-----------------------||-----------------------|-7--7-7--7-7-7-7-7-7-7-|


   Q.   Q  E E E E E E E   Q  E Q  E Q  E Q  E   Q  E Q  E Q  E Q  E
G|-----------------------|---------------------|---------------------|
D|-----------------------|-5--5-5--5-5--5-5--5-|-7----7----7----7----|
A|-5----5--5-5-5-5-5-5-5-|---------------------|----7----7----7----3-|
E|-----------------------|---------------------|---------------------|


   Q  E E E E E E E E E E   Q  E Q  E Q  E Q  E   Q  E Q  E Q  E Q  E
G|------------------------|---------------------|---------------------|
D|------------------------|---------------------|---------------------|
A|------------------------|-5--5-5--5-5--5-5--5-|-7--7-7--7-7--7-7--7-|
E|-7--7-7-7-7-7-7-7-7-7-7-|---------------------|---------------------|


                              [4th Verse]
     Q  E E E E Q  E E E E  4x Q  E E E E Q  E E E E   Q  E E E E Q  E E E E
G||-------------------------||-----------------------|-----------------------|
D||o-7----7---7-7----7---7-o||-7----7---7-7----7---7-|-7----7---7-7--7-----5-|
A||o----7---7------7---7---o||----7---7------7---7---|----7---7--------5-7---|
E||-------------------------||-----------------------|-----------------------|


   Q  E E E E Q  E E E E   Q  E E E E Q  E E E E   Q  E E E E Q.   E E E
G|-----------------------|-----------------------|------------------------|
D|-7----7---7-7----7---7-|-7----7---7-7--7-----5-|-7----7---7----------5--|
A|----7---7------7---7---|----7---7--------5-7---|----7---7---5----5-7----|
E|-----------------------|-----------------------|------------------------|


                                                  [Outro]
   Q  E E E E Q  E E E E   Q  E E E E Q  E E E E     Q  E E E E Q  E E E E
G|-----------------------|-----------------------||-------------------------|
D|-7----7---7-7--7-----4-|-5----5---5-5----5---5-||o-7----7---7-7----7---7--|
A|----7---7--------5-7---|----5---5------5---5---||o----7---7------7---7----|
E|-----------------------|-----------------------||-------------------------|


   Q  E E E E Q  E E E E   Q  E E E E Q  E E E E   Q  E E E E Q  E E E E   3x
G|-----------------------|-----------------------|-------------------------||
D|-5----5---5-5----5---5-|-7----7---7-7----7---7-|-5----5---5-5----5---5--o||
A|----5---5------5---5---|----7---7------7---7---|----5---5------5---5----o||
E|-----------------------|-----------------------|-------------------------||

            
Submit corrections


        Blind Eye lessons Hard to play? Try these video lessons and learn fast Blind Eye lessons
        
↑ Back to top | Tablatures and chords for acoustic guitar and electric guitar, ukulele, drums are parodies/interpretations of the original songs. You may use it for private study, scholarship, research or language learning purposes only