» » »

Urban Dub - Sailin Bass

Artists:  A B C D E F G H I J K L M N O P Q R S T U V W X Y Z # 

Sailin Bass

(ver. 1) Click to play this song!
Urban Dub
 Rating:
4/5 (4 votes)


 Sailin lessons Tabs too difficult? Try these video lessons and learn fast
 
                
Tuning: Drop D [DADGBe]

[Intro}
G|-------------------------------------|
D|-------------------------------------|
A|----------5-3-5-3---1-0-0-0-1--------| 4x
D|-5-5--5-5----------------------------|

G|-------------------------------------|
D|-------------------------------------|
A|-----------1-1-1-1--3-3-3-6-5-6-5----| 4x
D|-5-5--5-5----------------------------|


[Chorus]
G|--------------------------------------|
D|--------------------------------------|
A|--33333333-11111111-3333333-----------| 2x
D|---------------------------555555555--|


[Verse]
G|----------------------------------------------|
D|------5-3-----------------555-------5---------|
A|----5-----5---5---6-3---3-----6---3---6-------| 2x
D|--5---------5---------------------------------|

G|--------------------------------------|
D|--------------------33-11-3--33-1-3---|
A|--33-11-3--33-1-3-----------3---------| 2x
D|----------0---------------------------|

G|------------------------|
D|------------------------|
A|------------------------| 2x
D|---/5\------------------|


[Chorus]
G|--------------------------------------|
D|--------------------------------------|
A|--33333333-11111111-3333333-----------| 2x
D|---------------------------555555555--|


[Solo]
G|----------------------------------------------|
D|------5-3-----------------555-------5---------|
A|----5-----5---5---6-3---3-----6---3---6-------| 2x
D|--5---------5---------------------------------|

G|--------------------------------------|
D|--------------------33-11-3--33-1-3---|
A|--33-11-3--33-1-3-----------3---------| 2x
D|----------0---------------------------|


[Verse]
G|--------------------------------------|
D|--------------------33-11-3--33-1-3---|
A|--33-11-3--33-1-3-----------3---------|
D|----------0---------------------------|

G|-------------------------|
D|--------------------3~---|
A|--33-11-3--33-1-3--------| 
D|----------0--------------|

G|-----------------------|
D|-----------------------|
A|-----------------------|
D|--12/------------------|

G|--------------------------------------|
D|--------------------33-11-3--33-1-3---|
A|--33-11-3--33-1-3-----------3---------|
D|----------0---------------------------|

G|-------------------------|
D|--------------------3~---|
A|--33-11-3--33-1-3--------| 
D|----------0--------------|


[Bridge]

G|-------------------------------------------|
D|-------------------------------------------|
A|-----------33333333----------33333333------|
D|--55555555----------55555555---------------|

G|-------------------------------------|
D|-------------------------------------|
A|--11111111-33333333-11111111-3~------|
D|-------------------------------------|

G|-------------------------------------|
D|-------------------------------------|
A|-----------1-1-1-1--3-3-3-6-5-6-5----| 2x
D|-5-5--5-5----------------------------|


[Chorus]
G|--------------------------------------|
D|--------------------------------------|
A|--33333333-11111111-3333333-----------| 2x
D|---------------------------555555555--|
            
Submit corrections



        Sailin lessons Hard to play? Try these video lessons and learn fast Sailin lessons
        
↑ Back to top | Tablatures and chords for acoustic guitar and electric guitar, ukulele, drums are parodies/interpretations of the original songs. You may use it for private study, scholarship, research or language learning purposes only