Home » U » Up Dharma Down »

Up Dharma Down - Thinker Tabs

Artists:  A B C D E F G H I J K L M N O P Q R S T U V W X Y Z # 

Thinker Tabs

(ver. 1) Click to play this song!
Up Dharma Down
 Rating:
4/5 (4 votes)
                Tuning:Standard

e|---------------------------------------------------------------------------|
B|--------12--------12~----11--9---------------------------------------------|
G|--9--8------9--8----------------11-----------------------------------------|
D|---------------------------------------------------------------------------|
A|---------------------------------------------------------------------------|
E|---------------------------------------------------------------------------|

e|---------------------------------------------------------------------------|
B|--------12--------12~----11--9---------------------------------------------|
G|--9--8------9--8----------------11-----------------------------------------|
D|---------------------------------------------------------------------------|
A|---------------------------------------------------------------------------|
E|---------------------------------------------------------------------------|

e|--------------------------------------------------------------------------------------|
B|--------12--------12~----11--9--------------------------------------------------------|
G|--9--8------9--8----------------11----------------------------------------------------|
D|------------------------------------11--9~---------9------11b13b11--9------9b11-------|
A|--------------------------------------------9h11------11----------------11--------11--|
E|--------------------------------------------------------------------------------------|

e|---------------------------------------------------------------------------|
B|--/9~----------------------------------------------------------------------|
G|---------------------------------------------------------------------------|
D|---------------------------------------------------------------------------|
A|---------------------------------------------------------------------------|
E|---------------------------------------------------------------------------|
            
Submit corrections

↑ Back to top | Tablatures and chords for acoustic guitar and electric guitar, ukulele, drums are parodies/interpretations of the original songs. You may use it for private study, scholarship, research or language learning purposes only