Home » U » Up Dharma Down »

Up Dharma Down - Parks Tabs

Artists:  A B C D E F G H I J K L M N O P Q R S T U V W X Y Z # 

Parks Tabs

(ver. 1) Click to play this song!
Up Dharma Down
 Rating:
4/5 (4 votes)
                Tuning: Standard

----------------------------------------------------------------------------------------------
Intro:
e|---------------------------|------------------------------------------------|
B|---------------------------|------------------------------------------------|
G|------------9------9-------|------------------------------------------------|
D|---------9-----12-----9~---|----------9-------------------------------------|
A|--10h12--------------------|--10--12-----12--10-----------------------------|
E|---------------------------|------------------------------------------------|

e|---------------------------|------------------------------------------------|
B|---------------------------|------------------------------------------------|
G|------------9------9-------|---------------------12-------------------------|
D|---------9-----12-----9~---|----------9-------------------------------------|
A|--10h12--------------------|--10--12-----12--10-----------------------------|
E|---------------------------|------------------------------------------------|
----------------------------------------------------------------------------------------------




----------------------------------------------------------------------------------------------
Distorted Guitar (After "I couldn’t wait until the day is done")
e|--x--x----x-x-x-x-x--x---------|
B|--x--x----x-x-x-x-x--x---------|
G|--7--7----7-x-x-7-7-\7---------|
D|--x--x----x-x-x-x-x--x---------|
A|--5--5----5-x-x-5-5-\5---------|
E|--x--x----x-x-x-x-x--x---------|

The distorted guitar comes in before "I never thought that I would be the one who could 
deal with so much waiting" and is repeated until "Cause I’ve been setup in a situation where 
I’m terribly mistaken."
----------------------------------------------------------------------------------------------





----------------------------------------------------------------------------------------------
The intro is repeated some time 2:21-2:22 of the song. 
e|---------------------------|----------------------------|
B|---------------------------|----------------------------|
G|------------9------9-------|----------------------------|
D|---------9-----12-----9~---|----------9-----------------|
A|--10h12--------------------|--10--12-----12--10---------|
E|---------------------------|----------------------------|
----------------------------------------------------------------------------------------------





----------------------------------------------------------------------------------------------
Distorted guitar comes back in (After "Can you pretend like you lived one life for my love’")
e|--x--x----x-x-x-x-x--x---------|
B|--x--x----x-x-x-x-x--x---------|
G|--7--7----7-x-x-7-7-\7---------|
D|--x--x----x-x-x-x-x--x---------|
A|--5--5----5-x-x-5-5-\5---------|
E|--x--x----x-x-x-x-x--x---------|

This part is repeated until "Cause I’ve been setup in a situation where 
I’m terribly mistaken."
----------------------------------------------------------------------------------------------






----------------------------------------------------------------------------------------------
Outro: repeat until the end
e|--12------10de------|-------------------|
B|------12------------|--12---------------|
G|--------------------|------12--14de-----|
D|--------------------|-------------------|
A|--------------------|-------------------|
E|--------------------|-------------------|
----------------------------------------------------------------------------------------------
            
Submit corrections

↑ Back to top | Tablatures and chords for acoustic guitar and electric guitar, ukulele, drums are parodies/interpretations of the original songs. You may use it for private study, scholarship, research or language learning purposes only