» » »

Unwritten Law - Elva Bass

Artists:  A B C D E F G H I J K L M N O P Q R S T U V W X Y Z # 

Elva Bass

(ver. 1) Click to play this song!
Unwritten Law
 Rating:
4/5 (4 votes)


 Elva lessons Tabs too difficult? Try these video lessons and learn fast
 
                First little bit
Gb|-----------|
Db|-----------|
Ab|------57-5-|
Eb|-0-57------|

Verse
Gb|------------------------------------|
Db|------------------------------------|
Ab|-3-333-33---77-5-3-33-5---7---------|
Eb|----------0-------------0---5-0-23--|

Chorus
Gb|------------------------------------------------------------------------------|
Db|------------22----2-4-4h5p4-2-0-----------2-2-----22---2-----------2----------|
Ab|---5-----33---2-2-----------------5-----33----2-2-------2-55-5----2-2---55-5--|
Eb|-33-3-55------------------------33-3-555-------------0------5-5-0-----0---5-5-|

Gb|-----------------------------------|
Db|----2-----------2------------------|
Ab|---2-2--55-5---2-2-0-2-3-332-0-2-3-|
Eb|-0----0---5-5-0--------------------|

Main Riff (This is the cool one)
Gb|-----5--5/7-----12-11------9------5--5/7---------------|
Db|----5-5---------------12-9--12---5-5-------------------|
Ab|-33---------5------------------33--------5--------57-5-|
Eb|--------------0----------------------------000-57------|

Outro
Gb|-----------------------------/5hp5---------------|
Db|-----------------------------------/5h7p5--------|
Ab|-0-2-3-3332-0-2-3-3332-0-2-3--------------0-2-3~-|
Eb|-------------------------------------------------|
            
Submit corrections



        Elva lessons Hard to play? Try these video lessons and learn fast Elva lessons
        
↑ Back to top | Tablatures and chords for acoustic guitar and electric guitar, ukulele, drums are parodies/interpretations of the original songs. You may use it for private study, scholarship, research or language learning purposes only