» » »

Unsigned - Veedin - Wannabe Tabs

Artists:  A B C D E F G H I J K L M N O P Q R S T U V W X Y Z # 

Veedin - Wannabe Tabs

(ver. 1) Click to play this song!
Unsigned
 Rating:
4/5 (4 votes)
                Hey this is Shawn Anderson from the band Veedin
This song will be on our album Speed Killz which is going into production 
sometime in June 2003 

Dropped D tuning
 
Chorus/Intro
------------------------------------------------|------------
------------------------------------------------|------------
------------------------------------------------|------------
----5---5-5-----5--5-5----5---5--5-5---5--5-5---|---5--5--5--
---0---0-0----0---0-0---0----0--0-0---0--0-0----|--0--0--0---
-0----0-----0----0-----3----3--3-----3--3-------|-5--3--0----

The intro is palm muted 

Verse
-----------------------------------
-----------------------------------
-----------------------------------
-0-xxx-00-xxx-33--5/4-0-3-0-3-55---
-0-xxx-00-xxx-33--3/2-0-3-0-3-55---
-0-xxx-00-xxx-33------0-3-0-3-55---

Mid Riff
------------------------------------------7-5------------------------------------
-0-xx-5/7\5/7-3-33-5/7\5-0-xx-5/7\5/7-333-5-3------------------------------------
-0-xx-3/5\3/5-3-33-3/5\3-0-xx-3/5\3/5-333----------------------------------------
-0-xx---------3-33-------0-xx---------333----------------------------------------
                xx

Order:
Intro (clean)
Intro (distortion pmuted)
Verse 3x
Chorus
Midriff 2x
Verse 3x
Chorus 2x
Midriff 2x
            
Submit corrections

↑ Back to top | Tablatures and chords for acoustic guitar and electric guitar, ukulele, drums are parodies/interpretations of the original songs. You may use it for private study, scholarship, research or language learning purposes only