» » »

Unsigned - Stationary Objects Attack - Dark Side Tabs

Artists:  A B C D E F G H I J K L M N O P Q R S T U V W X Y Z # 

Stationary Objects Attack - Dark Side Tabs

(ver. 1) Click to play this song!
Unsigned
 Rating:
4/5 (4 votes)
    Stationary Objects Attack - Dark Side lessons Tabs too difficult? Try these video lessons and learn fast
                This tab can be played with acoustic, sounds alright, or with light to heavey distortion and it'll sound way the f*ck better...

**Tuning: EADGBd

Part 1:
                Bare and slide…
E----------------------------------------
A----------------------------------------
D----------------------------------------
G-0--0-2--2-3--3-1--1-0--0-2--2-5--5-3-0-
B-0--0-2--2-3--3-1--1-0--0-2--2-5--5-3-0-
D-0--0-2--2-3--3-1--1-0--0-2--2-5--5-3-0-



Part 2: 
                 Barre and slide…
E---------------------------------------------------
A---------------------------------------------------
D---------------------------------------------------
G-----0-----2-----3-----1----0------2-----5-----3---
B---0-----2-----3-----1-----0-----2-----5-----3-----
D-0-----2-----3-----1-----0----2------5-----3-------


Part 3:
            Once again, barre and slide..,
E------------------------------------------------
A------------------------------------------------
D------------------------------------------------
G-0-0-0-2-2-2-3-3-3-1--1-0-0-0-2-2-2-5-5-5-3--3--
B-0-0-0-2-2-2-3-3-3-1--1-0-0-0-2-2-2-5-5-5-3--3--
D-0-0-0-2-2-2-3-3-3-1--1-0-0-0-2-2-2-5-5-5-3--3—-


Part 4:
            Barre without sliding…
E----------------------------
A----------------------------
D----------------------------
G-0-2-4-0-5-3-0-2-4-0-5-3-0--
B-0-2-4-0-5-3-0-2-4-0-5-3-0--
D-0-2-4-0-5-3-0-2-4-0-5-3-0--


Part 1: x2
Part 2: x3
Part 3: x1
Part 2: x3
Part 4: x4
Part 2: x3
End…
            
Submit corrections

↑ Back to top | Tablatures and chords for acoustic guitar and electric guitar, ukulele, drums are parodies/interpretations of the original songs. You may use it for private study, scholarship, research or language learning purposes only