» » »

Unsigned - Pop Up - Craze Bass

Artists:  A B C D E F G H I J K L M N O P Q R S T U V W X Y Z # 

Pop Up - Craze Bass

(ver. 1) Click to play this song!
Unsigned
 Rating:
4/5 (4 votes)

 Pop Up - Craze lessons Tabs too difficult? Try these video lessons and learn fast
 
                Band - PoP uP
Song - Craze

Intro/Outro
-------------------------------------I
--9---12-4---------------------------I
-------------9---12-14---------------I
------------------------1-0-1--1-0-1-I  x3

Verse
-------------------------------------I
-9--13--9--13------------------------I
-------------------------------------I
--------------1-1-0-1-3-5------------I  x4

Outro x 2

This is one of our first songs and I'm the bands bassist so its spot on , the Intro/Outro is fairly slow but the verse is played fairly fast

Ace site , Ace Tab , Ace life
            
Submit corrections


        Pop Up - Craze lessons Hard to play? Try these video lessons and learn fast Pop Up - Craze lessons
        
↑ Back to top | Tablatures and chords for acoustic guitar and electric guitar, ukulele, drums are parodies/interpretations of the original songs. You may use it for private study, scholarship, research or language learning purposes only