» » »

Unsigned - One Stop Earnest - Morticia Tabs

Artists:  A B C D E F G H I J K L M N O P Q R S T U V W X Y Z # 

One Stop Earnest - Morticia Tabs

(ver. 1) Click to play this song!
Unsigned
 Rating:
4/5 (4 votes)
    One Stop Earnest - Morticia lessons Tabs too difficult? Try these video lessons and learn fast
                This whole song is in dropped D. The rhythms may be wrong on some of them but you're gonna have to figure that bit out for yourself.

Intro
E-------------------------------------------------------------------|
B-------------------------------------------------------------------|
G---9------9--9--9------9--9--9------9--9--9-----------------9--9--9|
D--7------7--7--6------6--6--7------7--7--7-----7--7--7-----7--7--6-|
A-9------9--9--7------7--7--5------5--5--7-----7--7--9-----9--9--7--|
D---------------------------------------------7--7--6---------------|

E-------------------------------------|
B-------------------------------------|
G----9--9--9------9--9--9-------------|
D---6--6--7------7--7--7-----7--7--7--|
A--7--7--5------5--5--7-----7--7--9---|
D--------------------------7--7--6----|


Verse 1 (palm muted) x2
E-------------------------------------------------------------------|
B-------------------------------------------------------------------|
G-11-11x11x11x11x11x11--9-9x9x9x9x9x9--7--7x7x7x7x7x7---9x9x9-------|
D-11-11x11x11x11x11x11--9-9x9x9x9x9x9--7--7x7x7x7x7x7---7x7x7-9x9x9-|
A-9--9-x9-x9-x9-x9-x9---7-7x7x7x7x7x7--5--5x5x5x5x5x5---7x7x7-7x7x7-|
D-------------------------------------------------------------7x7x7-|

Bridge x2
E-----------------------------------------------------|
B-----------------------------------------------------|
G--11-11-11-11-11-9-9-9-9-12/11-7-7-7-7-7-------9-9-9-|
D--11-11-11-11-11-9-9-9-9-12/11-7-7-7-7-7-7-7-7-9-9-9-|
A--9--9--9--9--9--7-7-7-7-10/9--5-5-5-5-5-7-7-7-7-7-7-|
D-----------------------------------------7-7-7-------|

Verse 2 (fast ska rhythm) x4
E--9--9--9--9--7-7-7-7-5-5-5-5-5-5-5-5-|
B--10-10-10-10-9-9-9-9-5-5-5-5-7-7-7-7-|
G--11-11-11-11-9-9-9-9-6-6-6-6-7-7-7-7-|
D--11-11-11-11-9-9-9-9-7-7-7-7-7-7-7-7-|
A--------------------------------------|
D--------------------------------------|

Chorus x4
E----------------------------------------------------|
B----------------------------------------------------|
G--11---11-11-11-11-11---------7---7-7-7-7-7---------|
D--11---11-9--9--9--9--7-7-7-7-7---7-7-7-7-7-7-9-9-9-|
A--9----9--9--9--9--9--7-7-7-7-5---5-5-5-5-5-7-9-9-9-|
D----------------------7-7-7-7---------------7-9-9-9-|

Verse 3 (fast ska rhythm) x4
E--9--9--9--9--7-7-7-7-5-5-5-5-5-5-5-5-|
B--10-10-10-10-9-9-9-9-5-5-5-5-7-7-7-7-|
G--11-11-11-11-9-9-9-9-6-6-6-6-7-7-7-7-|
D--11-11-11-11-9-9-9-9-7-7-7-7-7-7-7-7-|
A--------------------------------------|
D--------------------------------------|

Chorus x8
E----------------------------------------------------|
B----------------------------------------------------|
G--11---11-11-11-11-11---------7---7-7-7-7-7---------|
D--11---11-9--9--9--9--7-7-7-7-7---7-7-7-7-7-7-9-9-9-|
A--9----9--9--9--9--9--7-7-7-7-5---5-5-5-5-5-7-9-9-9-|
D----------------------7-7-7-7---------------7-9-9-9-|

Middle section (same as intro) x2
E-------------------------------------------------------------------|
B-------------------------------------------------------------------|
G---9------9--9--9------9--9--9------9--9--9----------------9--9--9-|
D--7------7--7--6------6--6--7------7--7--7-----7--7--7----7--7--6--|
A-9------9--9--7------7--7--5------5--5--7-----7--7--9----9--9--7---|
D--------------------------------------------7---7--6---------------|

E-------------------------------------|
B-------------------------------------|
G----9--9--9------9--9--9-------------|
D---6--6--7------7--7--7-----7--7--7--|
A--7--7--5------5--5--7-----7--7--9---|
D--------------------------7--7--6----|

Heavy guitar bit x2
E---------------------------------------------------|
B---------------------------------------------------|
G---------------------------------------------------|
D--4---4--4-4-4/7-7-7--7-7--0---0--0-0-0/9-9-9--9-9-|
A--4---4--4-4-4/7-7-7--7-7--0---0--0-0-0/9-9-9--9-9-|
D--4---4--4-4-4/7-7-7--7-7--0---0--0-0-0/9-9-9--9-9-|

Chorus x8
E----------------------------------------------------|
B----------------------------------------------------|
G--11---11-11-11-11-11---------7---7-7-7-7-7---------|
D--11---11-9--9--9--9--7-7-7-7-7---7-7-7-7-7-7-9-9-9-|
A--9----9--9--9--9--9--7-7-7-7-5---5-5-5-5-5-7-9-9-9-|
D----------------------7-7-7-7---------------7-9-9-9-|

END!
            
Submit corrections

↑ Back to top | Tablatures and chords for acoustic guitar and electric guitar, ukulele, drums are parodies/interpretations of the original songs. You may use it for private study, scholarship, research or language learning purposes only