» » »

Unsigned - My Heroics - Misc. Tabs

Artists:  A B C D E F G H I J K L M N O P Q R S T U V W X Y Z # 

My Heroics - Misc. Tabs

(ver. 1) Click to play this song!
Unsigned
 Rating:
4/5 (4 votes)
                (Guitar)
Intro (Guitar 1)
--------------------------------------------------------8-8-6-6-5h6-5----
------10-10-8-8-6-6-----10-10-8-8-6-6-----10-10-8-8-6-6---------------8--
--8-8---------------6-6--------------------------------------------------
--------------------------------------9-9--------------------------------


Intro (Guitar 2) played behind lead riff palm muted...
--10-10-10-10-10-10-------------------8-8-8-8-8-8-8-8-8--------------------------
--10-10-10-10-10-10-8-8-8-8-8-8-8-8-8-8-8-8-8-8-8-8-8-8-10-10-11-11-10-10-11-11--
--8--8--8--8--8--8--8-8-8-8-8-8-8-8-8-6-6-6-6-6-6-6-6-6-10-10-11-11-10-10-11-11--
--------------------6-6-6-6-6-6-6-6-6-------------------8--8--9--9--8--8--9--9---
            
Submit corrections

↑ Back to top | Tablatures and chords for acoustic guitar and electric guitar, ukulele, drums are parodies/interpretations of the original songs. You may use it for private study, scholarship, research or language learning purposes only