» » »

Unsigned - My Band-Song Tabs

Artists:  A B C D E F G H I J K L M N O P Q R S T U V W X Y Z # 

My Band-Song Tabs

(ver. 1) Click to play this song!
Unsigned
 Rating:
4/5 (4 votes)
    My Band-Song lessons Tabs too difficult? Try these video lessons and learn fast
                E—0------------------10------------------9--------------------------
B---7---7--------7------7---7---------7----7---7---------7----------
G-----9-------9-----------9---------9--------9---------9------------
D----------8----------------------8------------------8--------------
A-------------------------------------------------------------------
E----------------------------------------------------------------------------------------------------

E—-8------7-------7-----7----
B----7------7-------7---7----
G------9------9---------9----
D----------------------------
A----------------------------
E-----------------------------------------
            
Submit corrections

↑ Back to top | Tablatures and chords for acoustic guitar and electric guitar, ukulele, drums are parodies/interpretations of the original songs. You may use it for private study, scholarship, research or language learning purposes only