» » »

Unsigned - Laut - Time Walker Tabs

Artists:  A B C D E F G H I J K L M N O P Q R S T U V W X Y Z # 

Laut - Time Walker Tabs

(ver. 1) Click to play this song!
Unsigned
 Rating:
4/5 (4 votes)
                Band  - LAUT
Song  - Time Walker
Album - LAUT (DEMO)

Intro
 |Play 4 Times     |Play 4 Times     |
E|-----------------|-----------------|
B|-----------------|-----------------|
G|-----------------|-----------------|
D|-9-0-0-0-0-0-0-0-|-9-0-0-0-9-0-0-0-|
A|-9-0-0-0-0-0-0-0-|-9-0-0-0-9-0-0-0-|
E|-9-0-0-0-0-0-0-0-|-9-0-0-0-9-0-0-0-|


Verse
 |Play 4 Times
E|-------------|
B|-------------|
G|-------------|
D|-5-5-4-4-3-3-|
A|-5-5-4-4-3-3-|
E|-3-3-2-2-1-1-|


Chorus
 |Play 8 Times                 |
E|-----------------------------|
B|-----------------------------|
G|-----------------------------|
D|-5-5-6-6-5-5-4-4-5-5-6-6-7-7-|
A|-5-5-6-6-5-5-4-4-5-5-6-6-7-7-|
E|-3-3-4-4-3-3-2-2-3-3-4-4-5-5-|


Order
Intro  x1
Verse  x3
Chorus x1
Verse  x2
Chorus x1
Verse  x2
Chorus x1
Verse  x3
Chorus x1
Verse  x2
Chorus x1
Verse  x2
Chorus x1
Verse  x3
            
Submit corrections

↑ Back to top | Tablatures and chords for acoustic guitar and electric guitar, ukulele, drums are parodies/interpretations of the original songs. You may use it for private study, scholarship, research or language learning purposes only