» » »

Unsigned - Kitts - Doobiewickitywahwah Tabs

Artists:  A B C D E F G H I J K L M N O P Q R S T U V W X Y Z # 

Kitts - Doobiewickitywahwah Tabs

(ver. 1) Click to play this song!
Unsigned
 Rating:
4/5 (4 votes)
                Kitts
“Doobie Wickity Wah Wah”

Drop-D

e|-------------------------------|
B|-------------------------------|
G|-------------------------------|
D|-------------------------------|	x4
A|5-5-5-5-5-5-5-5-5-5-5-5-5-5-5-5|
D|0-0-0-0-0-0-0-0-4-4-4-4-5-5-5-5|


e|---------------------------------------------------------------|
B|---------------------------------------------------------------|
G|---------------------------------------------------------------|
D|7-7-7-7-7-7-7-7-5-5-5-5-5-5-5-5-7-7-7-7-7-7-7-7-5-5-5-5-5-5-5-5|
A|7-7-7-7-7-7-7-7-5-5-5-5-5-5-5-5-7-7-7-7-7-7-7-7-5-5-5-5-5-5-5-5| 
D|7-7-7-7-7-7-7-7-5-5-5-5-5-5-5-5-7-7-7-7-7-7-7-7-5-5-5-5-5-5-5-5|


e|-------------------------------------------------------|
B|-------------------------------------------------------|
G|-------------------------------------------------------|
D|7-7-7-7-7-7-7-7-9-9-9-9-9-9-9-9-11-11-11-11-11-11-11-11|
A|7-7-7-7-7-7-7-7-9-9-9-9-9-9-9-9-11-11-11-11-11-11-11-11|
D|7-7-7-7-7-7-7-7-9-9-9-9-9-9-9-9-11-11-11-11-11-11-11-11|


e|---------------|
B|---------------|
G|---------------|
D|7-7-7-7-7-7-7-7|
A|7-7-7-7-7-7-7-7|
D|7-7-7-7-7-7-7-7|


this sounds pretty kewl and is fun to play around with... 
2003
            
Submit corrections

↑ Back to top | Tablatures and chords for acoustic guitar and electric guitar, ukulele, drums are parodies/interpretations of the original songs. You may use it for private study, scholarship, research or language learning purposes only