» » »

Unsigned - Inside Of Gray Bass

Artists:  A B C D E F G H I J K L M N O P Q R S T U V W X Y Z # 

Inside Of Gray Bass

(ver. 1) Click to play this song!
Unsigned
 Rating:
4/5 (4 votes)


 Inside Of Gray lessons Tabs too difficult? Try these video lessons and learn fast
 
                INSIDE OF GRAY

Intro
(Guitar 1x alone)
G------------------------------------------------------|
D------------------------------------------------------|
A--4--------------------------4-----------7------------|
E--------5-----0-----7--------------5-----------7------|

Verse
G---------6------6------------------------------------9------9-----------------------
D------6-----6-----6------------7------7-----------9-----9-----9-----------9--7--6-4-
A--4-4--4--4---4-------------7-----7-----7-----7-7--7--7---7------------9------------
E------------------------5-5--5--5---5-------------------------------7---------------

G-----8-----8----8-------------------------------------------------------------------
D--6-----6-----6---------9-----9----9-------9-----9----9-------11-----11----11-------
A---------------------7-----7-----7-------------------------9------9------9----------
E----------------------------------------7-----7-----7-------------------------------

G-----8-----8-9-8----------------9---------------------------------------------------
D--6-----6---------------9-----9---9--------9-----9----9-------11-----11----11-------
A---------------------7-----7-------------------------------9------9------9----------
E----------------------------------------7-----7-----7-------------------------------

Chorus
G-----------------------------------------------|
D-----------------------------------------------|
A--4-4---------------------4-4------------------|
E-------5-----0--12-/-7---------5----0--12-/-7--|

End
G------------------------|
D------------------------|
A--4---------------------|
E--------5-----0-----7---|

You can play anything as many times as you want. Whatever sounds good, you know.
            
Submit corrections



        Inside Of Gray lessons Hard to play? Try these video lessons and learn fast Inside Of Gray lessons
        
↑ Back to top | Tablatures and chords for acoustic guitar and electric guitar, ukulele, drums are parodies/interpretations of the original songs. You may use it for private study, scholarship, research or language learning purposes only