» » »

Unsigned - Failswitch-Subjectable Tabs

Artists:  A B C D E F G H I J K L M N O P Q R S T U V W X Y Z # 

Failswitch-Subjectable Tabs

(ver. 1) Click to play this song!
Unsigned
 Rating:
4/5 (4 votes)
                This is another old song (demo), but we decided to put this one on for fun too.
In dropped D with some distortion but not a lot. Enjoy!

Verse
|--------------------------------------------------
|--------------------------------------------------
|--------------------------------------------------
|-5--5-5\4/-7--8--9-9-9----------------------------
|-3--3-3\2/-5--6--7-7-7----------------------------
|--------------------------------------------------


Chorus
|--------------------------------------------------
|--------------------------------------------------
|--------------------------------------------------
|-5--5-5--4--3-3--2-2-2----------------------------
|-3--3-3--2--1-1--0-0-0----------------------------
|--------------------------------------------------


Bass Intro
Verse  [x6]
Chorus  [x2]
Verse  [x2]
Chorus  [x2]
Outro  (this is really just the verse being played only by guitar 4 times)


Done! This is a really easy and short song but very fun to play! If you have 
            
Submit corrections

↑ Back to top | Tablatures and chords for acoustic guitar and electric guitar, ukulele, drums are parodies/interpretations of the original songs. You may use it for private study, scholarship, research or language learning purposes only