» » »

Unsigned - Deadline - Fake Tabs

Artists:  A B C D E F G H I J K L M N O P Q R S T U V W X Y Z # 

Deadline - Fake Tabs

(ver. 1) Click to play this song!
Unsigned
 Rating:
4/5 (4 votes)
                Frenzy : Bass
Gele : Guitar
Psyco : Drumz
Jaz : vocalz

Intro
|---------------------|
|---------------------|
|---------------------|
|---------------------| Repeat x4
|-2-2-2-2-/-1---------|
|-2-2-2-2-/-1---------|

Verse 1
|------------------------------------------------------|
|------------------------------------------------------|
|-0-0-33333333-0-0-11111111-0-0-44444444-0-0-22222222--| Repeat x10
|-0-0-33333333-0-0-11111111-0-0-44444444-0-0-22222222--| 
|-0-0-33333333-0-0-11111111-0-0-44444444-0-0-22222222--|
|-0-0-33333333-0-0-11111111-0-0-44444444-0-0-22222222--|

Verse 2
|-----------------------|
|-----------------------|
|-2-2-2-2-/-4-1---------| Repeat x10
|-2-2-2-2-/-4-1---------|
|-2-2-2-2-/-4-1---------|
|-2-2-2-2-/-4-1---------|

Chorus
|----------------------------------------|
|----------------------------------------|
|-4-4-4-4-/-5/6\5/4-4-4-4-/1/2\1---------| Repeat x6
|-4-4-4-4-/-5/6\5/4-4-4-4-/1/2\1---------|
|-4-4-4-4-/-5/6\5/4-4-4-4-/1/2\1---------|
|-4-4-4-4-/-5/6\5/4-4-4-4-/1/2\1---------|

Verse 3
|------------------------------|
|------------------------------|
|-0-4-0-4-0-4-0-4-/3-3---------| Repeat x10
|-0-4-0-4-0-4-0-4-/3-3---------|
|-0-4-0-4-0-4-0-4-/3-3---------|
|-0-4-0-4-0-4-0-4-/3-3---------|

Order of Song
Intro
verse 1
chorus
Verse 2
chorus
verse 3
chorus (to fade)

On the next tab we post we will leave a e-mail adress for you to
get in contact with frenzy about all the up and coming gigs and 
in the winter how to get our debut ablum (Mirror Image)
     
                 Thanx 
                    Gele & the rest of deadline
            
Submit corrections

↑ Back to top | Tablatures and chords for acoustic guitar and electric guitar, ukulele, drums are parodies/interpretations of the original songs. You may use it for private study, scholarship, research or language learning purposes only