» » »

Unsigned - Cold Fire - Prison Bass

Artists:  A B C D E F G H I J K L M N O P Q R S T U V W X Y Z # 

Cold Fire - Prison Bass

(ver. 1) Click to play this song!
Unsigned
 Rating:
4/5 (4 votes)
                Intro
G)-0--15--0-0--14--0--13--0-0--12
D)-------------------------------
A)-------------------------------   (x2)
E)-------------------------------

Verse
G)------------------
D)------------------
A)------------------   (x4)
E)-0--5-8--0-0-5-8--

Chorus
G)-----------------
D)-7-6-5-----------
A)--------7-6-5555-     (x4)
E)-----------------

Then play verse 4x.
THEN>>>>>

Outro
G)-0--15--0-0--14--0--13--0-0--12
            
Submit corrections

↑ Back to top | Tablatures and chords for acoustic guitar and electric guitar, ukulele, drums are parodies/interpretations of the original songs. You may use it for private study, scholarship, research or language learning purposes only