» » »

Unsigned - Behind The Truth - One And The Same Tabs

Artists:  A B C D E F G H I J K L M N O P Q R S T U V W X Y Z # 

Behind The Truth - One And The Same Tabs

(ver. 1) Click to play this song!
Unsigned
 Rating:
4/5 (4 votes)
                	              Behind the Truth - One and the Same


# = Palm Mute
~ = Let Ring
* = Stop Suddenly
Intro x 1
e|---------------------------------------------------------------------------|
B|---------------------------------------------------------------------------|
G|--9999-9999-9999-9999-9999-9999-99999999-----------------------------------|
D|--9999-9999-9999-9999-9999-9999-99999999-----------------------------------|X1
A|--7777-7777-7777-7777-7777-7777-77777777-----------------------------------|
E|--##-#-##-#-##-#-##-#-##-#-##-#--------------------------------------------|

Verse 1

Somethings i just don't know,
conspiracies around the world,
the government it doesn't show us,
how to live our lives    
e|---------------------------------------------------------------------------|
B|---------------------------------------------------------------------------|
G|-99999---------------------------------------------------------------------|
D|-99999-7777-99999-7777-----------------------------------------------------|X 2
A|-77777-7777-99999-7777-----------------------------------------------------|
E|-------5555-77777-5555-----------------------------------------------------|

Verse 2

The future is uncertain,
of what will be revealed,
but certainly there is no person,
who will ever let us live our lives
e|---------------------------------------------------------------------------|
B|---------------------------------------------------------------------------|
G|-99999------------------99999----------------------------------------------|
D|-99999-7777-99999-7777--99999-77777777-99999999-77777777-------------------|X 1
A|-77777-7777-99999-7777--77777-77777777-99999999-77777777-------------------|
E|-------5555-77777-5555--------55555555-77777777-55555555-------------------|

Chorus

Cuz it's all one big conspiracy,
a bug a glitch in democracy,
we should have the right to know
what is and isn't right
e|---------------------------------------------------------------------------|
B|---------------------------------------------------------------------------|
G|-99999999------------------------------------------------------------------|
D|-99999999-9999999-1111111111111111-77777777--------------------------------|X1
A|-77777777-7777777-1111111111111111-77777777--------------------------------|
E|-------------------9-9-9-9-9-9-9-9-55555555--------------------------------|

We should no the truth...
e|---------------------------------------------------------------------------|
B|---------------------------------------------------------------------------|
G|-9-------------------------------------------------------------------------|
D|-9-7-9~--------------------------------------------------------------------|X1
A|-7-7-9~--------------------------------------------------------------------|
E|---5-7~--------------------------------------------------------------------|

tonight!
e|---------------------------------------------------------------------------|
B|---------------------------------------------------------------------------|
G|-99999999------------------------------------------------------------------|
D|-99999999------------------------------------------------------------------|X1
A|-77777777------------------------------------------------------------------|
E|---------------------------------------------------------------------------|

Intro x 1
e|---------------------------------------------------------------------------|
B|---------------------------------------------------------------------------|
G|--9999-9999-9999-9999-9999-9999-99999999-----------------------------------|
D|--9999-9999-9999-9999-9999-9999-99999999-----------------------------------|X1
A|--7777-7777-7777-7777-7777-7777-77777777-----------------------------------|
E|--##-#-##-#-##-#-##-#-##-#-##-#--------------------------------------------|

Verse 3

Everyone asks the same questions,
do aliense exist?
no the don't state corporations,
and then we're lead to believe them.
e|---------------------------------------------------------------------------|
B|---------------------------------------------------------------------------|
G|-99999---------------------------------------------------------------------|
D|-99999-7777-99999-7777-----------------------------------------------------|X 2
A|-77777-7777-99999-7777-----------------------------------------------------|
E|-------5555-77777-5555-----------------------------------------------------|

Verse 4

I think they're in it together,
debating a deal,
risking the human race,
for something beyond our nature.
e|---------------------------------------------------------------------------|
B|---------------------------------------------------------------------------|
G|-99999------------------99999----------------------------------------------|
D|-99999-7777-99999-7777--99999-77777777-99999999-77777777-------------------|X 1
A|-77777-7777-99999-7777--77777-77777777-99999999-77777777-------------------|
E|-------5555-77777-5555--------55555555-77777777-55555555-------------------|

Chorus

Cuz it's all one big conspiracy,
a bug a glitch in democracy,
we should have the right to know
what is and isn't right
e|---------------------------------------------------------------------------|
B|---------------------------------------------------------------------------|
G|-99999999------------------------------------------------------------------|
D|-99999999-9999999-1111111111111111-77777777--------------------------------|X1
A|-77777777-7777777-1111111111111111-77777777--------------------------------|
E|-------------------9-9-9-9-9-9-9-9-55555555--------------------------------|

We should no the truth...
e|---------------------------------------------------------------------------|
B|---------------------------------------------------------------------------|
G|-9-------------------------------------------------------------------------|
D|-9-7-9~--------------------------------------------------------------------|X1
A|-7-7-9~--------------------------------------------------------------------|
E|---5-7~--------------------------------------------------------------------|

tonight!
e|---------------------------------------------------------------------------|
B|---------------------------------------------------------------------------|
G|-99999999------------------------------------------------------------------|
D|-99999999------------------------------------------------------------------|X1
A|-77777777------------------------------------------------------------------|
E|---------------------------------------------------------------------------|

Bridge/guitar 1

let's try harder, we can figure it out
what the governmenet is hidding, and what they're all about
let's try harder now to figure out the truth,
what the government is hideing, and what they're doing to our youth!

e|---------------------------------------------------------------------------|
B|---------------------------------------------------------------------------|
G|-9~------7~----------------------------------------------------------------|
D|-X~------X~-----4-------7--9-----------------------------------------------|X1
A|-7~------5~-----4-------7--9-----------------------------------------------|
E|----------------2-------5--7-----------------------------------------------|
then
e|---------------------------------------------------------------------------|
B|---------------------------------------------------------------------------|
G|-9~------7~----------------------------------------------------------------|
D|-X~------X~-----4-------77777777--999999999--------------------------------|X1
A|-7~------5~-----4-------77777777--999999999--------------------------------|
E|----------------2-------55555555--777777777--------------------------------|

Chorus

Cuz it's all one big conspiracy,
a bug a glitch in democracy,
we should have the right to know
what is and isn't right
e|---------------------------------------------------------------------------|
B|---------------------------------------------------------------------------|
G|-99999999------------------------------------------------------------------|
D|-99999999-9999999-1111111111111111-77777777--------------------------------|X1
A|-77777777-7777777-1111111111111111-77777777--------------------------------|
E|-------------------9-9-9-9-9-9-9-9-55555555--------------------------------|

We should no the truth...
e|---------------------------------------------------------------------------|
B|---------------------------------------------------------------------------|
G|-9-------------------------------------------------------------------------|
D|-9-7-9~--------------------------------------------------------------------|X1
A|-7-7-9~--------------------------------------------------------------------|
E|---5-7~--------------------------------------------------------------------|

Cuz it's all one big conspiracy,
a bug a glitch in democracy,
we should have the right to know
what is and isn't right
e|---------------------------------------------------------------------------|
B|---------------------------------------------------------------------------|
G|-99999999------------------------------------------------------------------|
D|-99999999-9999999-1111111111111111-77777777--------------------------------|X1
A|-77777777-7777777-1111111111111111-77777777--------------------------------|
E|-------------------9-9-9-9-9-9-9-9-55555555--------------------------------|

We should no the truth...
they should no the truth,
You should know the truth...
e|---------------------------------------------------------------------------|
B|---------------------------------------------------------------------------|
G|-9-------------------------------------------------------------------------|
D|-9-7-9~--------------------------------------------------------------------|X1
A|-7-7-9~--------------------------------------------------------------------|
E|---5-7~--------------------------------------------------------------------|

tonight!
e|---------------------------------------------------------------------------|
B|---------------------------------------------------------------------------|
G|-99999999------------------------------------------------------------------|
D|-99999999------------------------------------------------------------------|X1
A|-77777777------------------------------------------------------------------|
E|---------------------------------------------------------------------------|

e|---------------------------------------------------------------------------|
B|---------------------------------------------------------------------------|
G|--9999-9999-9999-9999-9999-9999-99999999-----------------------------------|
D|--9999-9999-9999-9999-9999-9999-99999999*----------------------------------|X1
A|--7777-7777-7777-7777-7777-7777-77777777-----------------------------------|
E|--##-#-##-#-##-#-##-#-##-#-##-#--------------------------------------------|
            
Submit corrections

↑ Back to top | Tablatures and chords for acoustic guitar and electric guitar, ukulele, drums are parodies/interpretations of the original songs. You may use it for private study, scholarship, research or language learning purposes only