» » »

Unsigned - Bad N3wz - Rock Till We Die Tabs

Artists:  A B C D E F G H I J K L M N O P Q R S T U V W X Y Z # 

Bad N3wz - Rock Till We Die Tabs

(ver. 1) Click to play this song!
Unsigned
 Rating:
4/5 (4 votes)
                
Standard Tuning

Intro   (repeat x4)
----------------------------------------------
----------------------------------------------
----------------------------------------------
4-4-4-4-4-7(bend up)--1--2--3-----------------
4-4-4-4-4-7(bend up)--1--2--3-----------------
4-4-4-4-4-7(bend up)--1--2--3-----------------

verse  (repeat x4)
----------------------------------------------
----------------------------------8-----------
----------------------------------7-----------
----------------------------------------------
----------------------------------------------
-0-0-0-0-0-0-0-0-0-0-0-0---(deaden each strum)

Chorus same as intro

verse 2
--------------------------------
--------------------------------
--------------------------------
--------------------------------
--------------------------------
0-0-0-0-0-0-0-0-0-0-0-0-9-9-10-10

chorus same as intro

outro
------------15h18 (bend up)---15h18--------------------
------15h18--------------------------18p15---18(bend up)
-------------------------------------------------------
----------------------------------
----------------------------------
----------------------------------
            
Submit corrections

↑ Back to top | Tablatures and chords for acoustic guitar and electric guitar, ukulele, drums are parodies/interpretations of the original songs. You may use it for private study, scholarship, research or language learning purposes only