» » »

Unsigned - Authentic Tradition - The Getaway Bass

Artists:  A B C D E F G H I J K L M N O P Q R S T U V W X Y Z # 

Authentic Tradition - The Getaway Bass

(ver. 1) Click to play this song!
Unsigned
 Rating:
4/5 (4 votes)
                This is the great new song form the upcoming band Athentic Tradition, combining the light with the heavy in rocking fashion. Be sure to check them out round the London scene!!!!!!!!!!!!!!!!!!!!

VERSE:

Drop D Tuning

G--------------------------------------------------------------------------------
D-0-0-0-0-0-0-0-2-3-3-3-3-3-3-3-5-5-5-5-5-5-5-7-7-7-7-5-7-5----------------------
A--------------------------------------------------------------------------------
D--------------------------------------------------------------------------------

G--------------------------------------------------------------------------------
D-0-0-0-0-0-0-0-2-3-3-3-3-3-3-3-5-5-5-5-5-5-5-2-2-2-2-2-2-2----------------------
A--------------------------------------------------------------------------------
D--------------------------------------------------------------------------------
                                         -" take me away, take me away"

                                                             x 2

CHORUS:

G-10-10-10-10-10-10-10-10-9-9-9-9-9-9-9-9-10-10-10-10-10-10-10-10-9-9-9-9-12-12-12
D-8--8--8--8--8--8--8--8--8-8-8-8-8-8-8-8-8--8--8--8--8--8--8--8--8-8-8-8-8--8--8
A--------------------------------------------------------------------------------
D--------------------------------------------------------------------------------

G-2-2-2-2-2-2-2-2-2-2-2-2-2-2-2-----5-5-5-5-5-5-5-5-5-5-5-5-5-5-5---2------------
D-0-0-0-0-0-0-0-0-0-0-0-0-0-0-0--2--3-3-3-3-3-3-3-3-3-3-3-3-3-3-3---0 hold-------
A--------------------------------------------------------------------------------
D--------------------------------------------------------------------------------

                                                              x 2

VERSE : REPEAT

CHORUS : REPEAT

INTERLUDE:

G----------------
D----------------
A----------------
D-0-5-7-8-7-5-7-5
                 x 2

CHORUS AS OUTRO: x 8
            
Submit corrections

↑ Back to top | Tablatures and chords for acoustic guitar and electric guitar, ukulele, drums are parodies/interpretations of the original songs. You may use it for private study, scholarship, research or language learning purposes only