» » »

Unsigned - A Battle In N.Y. - Im Not Finished Bass

Artists:  A B C D E F G H I J K L M N O P Q R S T U V W X Y Z # 

A Battle In N.Y. - Im Not Finished Bass

(ver. 1) Click to play this song!
Unsigned
 Rating:
4/5 (4 votes)
                G|--------------------|
D|-----5---4---3----1-| X1
A|---6---5---4---3----|
E|-7------------------|
     second part
G|-------------------|
D|-----5---4---3---7-| X1
A|---6---5---4---3---|
E|-7-----------------|
     chorus
G|----------------------|-----------------------|
D|----------------------|-----------------------| X4
A|-----3-2--2-0-2-0-(2)-|-----3-2--2-0-1-0------|
E|-0-3------------------|-0-3---------------(1)-|
     After-Chorus
G|-------------------|-----------------------|
D|-------------------|-----------------------|
A|-------------------|-----------------------|
E|-(5)-(5)-(5)-7-8-7-|-(5)-(5)-(5)-8-9-8-(6)-|
     Repeat all of this one more time then at the end do this
G|-------------|
D|-------------| 1 time
A|-----------0-|
E|-h2----------|
            
Submit corrections

↑ Back to top | Tablatures and chords for acoustic guitar and electric guitar, ukulele, drums are parodies/interpretations of the original songs. You may use it for private study, scholarship, research or language learning purposes only