» » »

United Live - Take It All Bass

Artists:  A B C D E F G H I J K L M N O P Q R S T U V W X Y Z # 

Take It All Bass

(ver. 2) Click to play this song!
United Live
 Rating:
4/5 (4 votes)


 Take It All lessons Tabs too difficult? Try these video lessons and learn fast
 
                -------------------------------------------------------------------------------
			     Take It All - United Live
-------------------------------------------------------------------------------


Tuning: standard

Intro/Verses
G|---------------------------------------------------------------------------|
D|---------------------------------------------------------------------------|
A|222-222-2221166------------------------------------------------------------|
E|---------------------------------------------------------------------------|

Pre-chorus
G|---------------------------------------------------------------------------|
D|---------------------------------------------------------------------------|
A|---------------------------------------------------------------------------|
E|33-33-0-000000-------------------------------------------------------------|

Chorus
G|------------------------------------------------------------------------------|
D|------------------------------------------------------------------------------|
A|2-222222---------------------------2-222222---------4-------------------------|
E|--------2-222222-4-444444-0-000000---------2-222222---------------------------|

Interlude build up
G|------------------|
D|------------------|
A|2222222222222222--|
E|------------------|

G|--------------------------------------------------|
D|--------------------------------------------------|
A|44--------------44-----------44---------22222222--|
E|--44-22-00-0000---44-22-2222---44-22-00-----------|

then intro 2x end on a 2 on the A string and hold it out through the first half of the chorus


That's all. once again 100% sure it's correct. e-mail me with questions.
===============================================================================
            
Submit corrections



        Take It All lessons Hard to play? Try these video lessons and learn fast Take It All lessons
        
↑ Back to top | Tablatures and chords for acoustic guitar and electric guitar, ukulele, drums are parodies/interpretations of the original songs. You may use it for private study, scholarship, research or language learning purposes only