» » »

United Live - Revolution We Stand Tabs

Artists:  A B C D E F G H I J K L M N O P Q R S T U V W X Y Z # 

Revolution We Stand Tabs

(ver. 1) Click to play this song!
United Live
 Rating:
4/5 (4 votes)

 Revolution We Stand lessons Tabs too difficult? Try these video lessons and learn fast
 
                Intro:
Strum these chords
---------------------------------|
-14-12-11-12--12-11--9---12------|
-11-11-11-11--11-11--10--10------|
-13-13-13-13--11-11--11--12------|
---------------------------------|
---------------------------------|
D#, F#, C#, Bmb/D


Verse
---------|
-7-------|
-6--(x8)-| strum with lots of mutes
---------| in between.
-6-------|
---------|

-----------------|
-----------------|
-6--8--10--11----|
-----------------| (x2)
-4--6--8---9-----|
-----------------|

-----
--9--
--8--
--9--
-----
-----
G#m

Chorus
F# B G#m D#
F# B G#m -

Instrumental
Use a semi-quaver (16th note) delay, with the mix at about 53%, feedback at 0%.
-------------------------|
-------14-14-------12-12-|
----11----------11-------|
-13----------13----------|
-------------------------|
-------------------------|
D#

-------------------------|
-------11-11-------12-12-|
----11----------11-------|
-13----------13----------|
-------------------------|
-------------------------|

---------------------------|
--------12-12--------11-11-|
----11------------11-------|
-11------------11----------|
---------------------------|
---------------------------|
F#

---------------------------|
--------9-9----------12-12-|
----10-----------10--------|
-11-----------12-----------|
---------------------------|
---------------------------|
C# . . . . .Bmb5/D

Bridge
The first part uses the same tabs as the verse.

Second part - with delay again
---------------------|
---------------------|
-----6-6------6-6----|
---4--------4--------|
-6--------6----------|
---------------------|
D#

---------------------|
---------------------|
-----6-6------6-6----|
---4--------4--------|
-2--------2----------|
---------------------|
Badd9

---------------------|
---------------------|
-----6-6------6-6----|
---4--------4--------|
---------------------|
-6-------6-----------|
F#/A#

------------------|
-----6------------|
---6---6------7---| replacing '8' with
------------8---8-| '6' works too.
-4--------5-------|
------------------|
C# . . .A#/D

Repeat, followed by:

------------|
--------4---|
------4-----|
-4--6-------|
------------|
------------|
            
Submit corrections


        Revolution We Stand lessons Hard to play? Try these video lessons and learn fast Revolution We Stand lessons
        
↑ Back to top | Tablatures and chords for acoustic guitar and electric guitar, ukulele, drums are parodies/interpretations of the original songs. You may use it for private study, scholarship, research or language learning purposes only