Home » U » Unheilig »

Unheilig - Astronaut Tabs

Artists:  A B C D E F G H I J K L M N O P Q R S T U V W X Y Z # 

Astronaut Tabs

(ver. 1) Click to play this song!
Unheilig
Intro (piano) (clean sound)
E|---------------|---------------|----------------------|
B|---------------|---------------|----------------------|
G|-10-10-9-7-5---|-10-10-12-10---|-10-10-9-7-5----------|
D|-------------7-|-------------7-|-------------7--5--2--|
A|---------------|---------------|----------------------|
E|---------------|---------------|----------------------|

(Clean sound)
E|-----------------------------------------------------------|
B|-----------------------------------------------------------|
G|-----------------------------------------------------------|
D|----3-------7-------3-------7-------3-------7-------5------| x2
A|--3---3---7---7---3---3---7---7---3---3---7---7---5---5----|
E|-1-1-1-1-5-5-5-5-1-1-1-1-5-5-5-5-1-1-1-1-5-5-5-5-3-3-3-3-0-|

(Clean sound) (piano part)
E|---------------|---------------|----------------------|
B|---------------|---------------|----------------------|
G|-10-10-9-7-5---|-10-10-12-10---|-10-10-9-7-5----------|
D|-------------7-|-------------7-|-------------7--5--2--| x2
A|---------------|---------------|----------------------|
E|---------------|---------------|----------------------|



(With distortion or overdrive)
E|----------------------------------|                                          }
B|----------------------------------|                                          }
G|----------------------------------|                                          }
D|-7-------7--10----7---------------|                                          }
A|---10-7-------7--7--10-7--3--5--7-|                                          }
E|----------------------------------|                                          }
(Clean sound)(piano part)                                                      }
E|---------------|---------------|----------------------|                      }
B|---------------|---------------|----------------------|                      }
G|-10-10-9-7-5---|-10-10-12-10---|-10-10-9-7-5----------|                      } All together
D|-------------7-|-------------7-|-------------7--5--2--|                      }
A|---------------|---------------|----------------------|                      }
E|---------------|---------------|----------------------|                      }
(With distortion or overdrive)                                                 }
E|-------------------------------------------------------------------------|   }
B|-------------------------------------------------------------------------|   }
G|-------------------------------------------------------------------------|   }
D|-33333333-77777777-33333333-77777777-33333333-77777777-55555555-22222222-|   }
A|-33333333-77777777-33333333-77777777-33333333-77777777-55555555-22222222-|   }
E|-11111111-55555555-11111111-55555555-11111111-55555555-33333333-00000000-|   }
   ******** ******** ******** ******** ******* ********* ******** ********     }



(Clean sound)
E|-----------------------------------------------------------|                 }
B|-----------------------------------------------------------|                 }
G|-----------------------------------------------------------|                 }
D|----3-------7-------3-------7-------3-------7-------5------|                 }
A|--3---3---7---7---3---3---7---7---3---3---7---7---5---5----|                 }
E|-1-1-1-1-5-5-5-5-1-1-1-1-5-5-5-5-1-1-1-1-5-5-5-5-3-3-3-3-0-|                 }
(With distortion or overdrive)                                                 } This together
E|-------------------------------------------------------------------------|   }
B|-------------------------------------------------------------------------|   }
G|-------------------------------------------------------------------------|   }
D|-33333333-77777777-33333333-77777777-33333333-77777777-55555555-22222222-|   }
A|-33333333-77777777-33333333-77777777-33333333-77777777-55555555-22222222-|   }
E|-11111111-55555555-11111111-55555555-11111111-55555555-33333333-00000000-|   }
   ******** ******** ******** ******** ******* ********* ******** ********     }



(Clean sound)(piano part)
E|---------------|---------------|----------------------|                      }
B|---------------|---------------|----------------------|                      }
G|-10-10-9-7-5---|-10-10-12-10---|-10-10-9-7-5----------|                      } 
D|-------------7-|-------------7-|-------------7--5--2--|                      }
A|---------------|---------------|----------------------|                      }
E|---------------|---------------|----------------------|                      }
(With distortion or overdrive)                                                 }
E|-------------------------------------------------------------------------|   }
B|-------------------------------------------------------------------------|   }
G|-------------------------------------------------------------------------|   }
D|-33333333-77777777-33333333-77777777-33333333-77777777-55555555-22222222-|   } All together
A|-33333333-77777777-33333333-77777777-33333333-77777777-55555555-22222222-|   }
E|-11111111-55555555-11111111-55555555-11111111-55555555-33333333-00000000-|   }
   ******** ******** ******** ******** ******* ********* ******** ********     }
(Clean sound)                                                                  }
E|-----------------------------------------------------------|                 }
B|-----------------------------------------------------------|                 }
G|-----------------------------------------------------------|                 }
D|----3-------7-------3-------7-------3-------7-------5------|                 }
A|--3---3---7---7---3---3---7---7---3---3---7---7---5---5----|                 }
E|-1-1-1-1-5-5-5-5-1-1-1-1-5-5-5-5-1-1-1-1-5-5-5-5-3-3-3-3-0-|                 }




(With distortion or overdrive)
E|----------------------------------|                                          }
B|----------------------------------|                                          }
G|----------------------------------|                                          }
D|-7-------7--10----7---------------|                                          }
A|---10-7-------7--7--10-7--3--5--7-|                                          }
E|----------------------------------|                                          }
 (Clean sound)(piano part)                                                     }
E|---------------|---------------|----------------------|                      }
B|---------------|---------------|----------------------|                      }
G|-10-10-9-7-5---|-10-10-12-10---|-10-10-9-7-5----------|                      } All together
D|-------------7-|-------------7-|-------------7--5--2--|                      }
A|---------------|---------------|----------------------|                      } x4
E|---------------|---------------|----------------------|                      }
(With distortion or overdrive)                                                 }
E|-------------------------------------------------------------------------|   }
B|-------------------------------------------------------------------------|   }
G|-------------------------------------------------------------------------|   }
D|-33333333-77777777-33333333-77777777-33333333-77777777-55555555-22222222-|   }
A|-33333333-77777777-33333333-77777777-33333333-77777777-55555555-22222222-|   }
E|-11111111-55555555-11111111-55555555-11111111-55555555-33333333-00000000-|   }
   ******** ******** ******** ******** ******* ********* ******** ********     }



Outro (clean sound)
E|---------------|---------------|----------------------|
B|---------------|---------------|----------------------|
G|-10-10-9-7-5---|-10-10-12-10---|-10-10-9-7-5----------|
D|-------------7-|-------------7-|-------------7--5--2--|
A|---------------|---------------|----------------------|
E|---------------|---------------|----------------------|            
Submit corrections

↑ Back to top | Tablatures and chords for acoustic guitar and electric guitar, ukulele, drums are parodies/interpretations of the original songs. You may use it for private study, scholarship, research or language learning purposes only