» » »

Undertones - Get Over You Tabs

Artists:  A B C D E F G H I J K L M N O P Q R S T U V W X Y Z # 

Get Over You Tabs

(ver. 1) Click to play this song!
Undertones
 Rating:
4/5 (4 votes)


 Get Over You lessons Tabs too difficult? Try these video lessons and learn fast
 
                -----------------------------------------------------------------------------   
                    Get Over You - The Undertones
-----------------------------------------------------------------------------

Tuning: Standard (E A D G B E)


intro
E|-----------------------------------------------------------------|
B|-----------------------------------------------------------------|
G|-----------------------------------------------------------------|
D|-9-9-11-9-9-9-11-------------------------------------------------|
A|-7-7-7--7-7-7-7---7-7-9-7-7-7-9--9-9-11-9-9-9-11-9-9-11-9-9-9-11-|
E|------------------5-5-5-5-5-5-5--7-7-7--7-7-7-7--7-7-7--7-7-7-7--|X3


verse
E|-----------------------------------------------------------------|
B|-----------------------------------------------------------------|
G|-----------------------------------------------------------------|
D|-9-9-11-9-9-9-11-------------------------------------------------|
A|-7-7-7--7-7-7-7---7-7-9-7-7-7-9--9-9-11-9-9-9-11-9-9-11-9-9-9-11-|
E|------------------5-5-5-5-5-5-5--7-7-7--7-7-7-7--7-7-7--7-7-7-7--|X2

E|---------------------------------|   
B|---------------------------------|  
G|---------------------------------|   
D|---------------------------------|   
A|-7-7-9-7-7-7-9--9-9-11-9-9-9-11--|   
E|-5-5-5-5-5-5-5--7-7-7--7-7-7-9---|X3 

E|------------------------------------|
B|------------------------------------|
G|------------------------------------|
D|------------------------------------|
A|-7-7-9-7-7-9--9-9-9-9-9-9-9-9-9-9-9-|
E|-5-5-5-5-5-5--7-7-7-7-7-7-7-7-7-7-7-|




chorus
E|----------------------------------------------|
B|----------------------------------------------|
G|----------------------------------------------|
D|-9-9-9-9-9-9-----------9-9-9-9-9-9------------|
A|-7-7-7-7-7-7-7-7-7-7-7-7-7-7-7-7-7-9-9-9-9-9--|
E|-------------5-5-5-5-5-------------7-7-7-7-7--|

E|-----------------------------------------|
B|-----------------------------------------|
G|-----------------------------------------|
D|-9-9-9-9-9-9-----------------------------|
A|-7-7-7-7-7-7-7-7-7-7-7-9-9-9-9-9-9-9-9-9-|
E|-------------5-5-5-5-5-7-7-7-7-7-7-7-7-7-|

solo

GUITAR I 
E|---------------------------------------------------|
B|---------------------------------------------------|
G|-9-11-9-11-----------------------------------------|
D|-9-11-9-11-7-7-9-7-9--9-9-11p9-11p9-9-9-11p9-11p9--|
A|-----------7-7-9-7-9--9-9-11p9-11p9-9-9-11p9-11p9--|
E|---------------------------------------------------|
 
E|-----------------------------------12-12-12-12-12\-|
B|-----------------------------------12-12-12-12-12\-|
G|-9-11-9-11-----------------------------------------|
D|-9-11-9-11-7-7-9-7-9--9-9-9-9-9-9-9----------------|
A|-----------7-7-9-7-9--9-9-9-9-9-9-9----------------|
E|---------------------------------------------------|


backing (GUITAR II)     
E|-----------------------------------------------------------------|
B|-----------------------------------------------------------------|
G|-----------------------------------------------------------------|
D|-9-9-11-9-9-9-11-------------------------------------------------|
A|-7-7-7--7-7-7-7---7-7-9-7-7-7-9--9-9-11-9-9-9-11-9-9-11-9-9-9-11-|
E|------------------5-5-5-5-5-5-5--7-7-7--7-7-7-7--7-7-7--7-7-7-7--|X2



order:

intro   
verse   
chorus 
verse   
chorus  
solo    
verse   
chorus  keep playing until fades out
            
Submit corrections



        Get Over You lessons Hard to play? Try these video lessons and learn fast Get Over You lessons
        
↑ Back to top | Tablatures and chords for acoustic guitar and electric guitar, ukulele, drums are parodies/interpretations of the original songs. You may use it for private study, scholarship, research or language learning purposes only