Home » U » Undertones »

Undertones - Eternal Winter Tabs

Artists:  A B C D E F G H I J K L M N O P Q R S T U V W X Y Z # 

Eternal Winter Tabs

(ver. 1) Click to play this song!
Undertones
 Rating:
4.3/5 (23 votes)
                Intro
    Q=140
    E5                    C/E
   4/4
    Gtr I
e|-----------|----------|----------|------|
B|o----------|----------|----------|------|
G|-----------|----------|----------|------|
D|-----------|----------|----------|------|
A|o-2--------|-2--------|-3--------|-3----|
E|--0--------|-0--------|-0--------|-0----|

  1.
  E5                    C/E
e|----------|----------|----------|------------||
B|----------|----------|----------|-----------o||
G|----------|----------|----------|------------||
D|----------|----------|----------|------------||
A|-2--------|-2--------|-3--------|-3------3--o||
E|-0--------|-0--------|-0--------|-0----------||

  2.
  E5                    C/E
e|----------|----------|----------|-----------|
B|----------|----------|----------|-----------|
G|----------|----------|----------|-----------|
D|----------|----------|----------|--------2--|
A|-2--------|-2--------|-3--------|-3---------|
E|-0--------|-0--------|-0--------|-0---------|

    E5                    C/E
e|-----------|----------|----------|------|
B|o----------|----------|----------|------|
G|-----------|----------|----------|------|
D|-----------|----------|----------|------|
A|o-2--------|-2--------|-3--------|-3----|
E|--0--------|-0--------|-0--------|-0----|
 |
 |   TP         TP         TP         TP
e|-----------|----------|----------|------|
B|o----------|----------|----------|------|
G|-----------|----------|----------|------|
D|-----------|----------|----------|------|
A|o----------|----------|----------|------|
E|--7--------|-7--------|-8--------|-8----|

   1.
   E5                    C/E
e|----------|----------|----------|------------||
B|----------|----------|----------|-----------o||
G|----------|----------|----------|------------||
D|----------|----------|----------|------------||
A|-2--------|-2--------|-3--------|-3------3--o||
E|-0--------|-0--------|-0--------|-0----------||
|
 | TP         TP         TP         TP
e|----------|----------|----------|------------||
B|----------|----------|----------|-----------o||
G|----------|----------|----------|------------||
D|----------|----------|----------|------------||
A|----------|----------|----------|-----------o||
E|-7--------|-7--------|-8--------|-8----------||

  2.
e|----------|----------|----------|-----------|
B|----------|----------|----------|-----------|
G|----------|----------|----------|-----------|
D|----------|----------|----------|--------2--|
A|-2--------|-2--------|-3--------|-3---------|
E|-0--------|-0--------|-0--------|-0---------|
 |
 | TP         TP         TP         TP
e|----------|----------|----------|-----------|
B|----------|----------|----------|-----------|
G|----------|----------|----------|-----------|
D|----------|----------|----------|-----------|
A|----------|----------|----------|-----------|
E|-7--------|-7--------|-8--------|-8---------|

     E5                           C/E
e||--------------|--------------|-------------|---------------|
B||o-------------|--------------|-------------|---------------|
G||--------------|--------------|-------------|---------------|
D||--------------|--------------|-------------|---------------|
A||o-2-----------|-2------------|-3-----------|-3-------------|
E||--0-----------|-0------------|-0-----------|-0-------------|
|
 |   TP  TPTP  TP  TP  TPTPTPTP   TP  TPTP  TP  TP  TPTPTPTP
e||--------------|--------------|-------------|---------------|
B||o-------------|--------------|-------------|---------------|
G||--------------|--------------|-------------|---------------|
D||--------------|--------------|-------------|---------------|
A||o-------------|--------------|-------------|---------------|
E||--7---0-7---0-|-7---0-7-0-7--|-8---0-8---0-|-8---0-8-0-8---|
|
 |   TP            TP             TP            TP
e||--7-----------|-7------------|-8-----------|-8-------------|
B||o-------------|--------------|-------------|---------------|
G||--------------|--------------|-------------|---------------|
D||--------------|--------------|-------------|---------------|
A||o-------------|--------------|-------------|---------------|
E||--------------|--------------|-------------|---------------|

   1.
   E5                           C/E
e|-------------|--------------|-------------|----------------||
B|-------------|--------------|-------------|---------------o||
G|-------------|--------------|-------------|----------------||
D|-------------|--------------|-------------|----------------||
A|-2-----------|-2------------|-3-----------|-3----------3--o||
E|-0-----------|-0------------|-0-----------|-0--------------||
|
 | TP  TPTP  TP  TP  TPTPTPTP   TP  TPTP  TP  TP  TPTPTP TP
e|-------------|--------------|-------------|----------------||
B|-------------|--------------|-------------|---------------o||
G|-------------|--------------|-------------|----------------||
D|-------------|--------------|-------------|----------------||
A|-------------|--------------|-------------|---------------o||
E|-7---0-7---0-|-7---0-7-0-7--|-8---0-8---0-|-8---0-8-0--8---||
|
 | TP            TP             TP            TP         TP
e|-7-----------|-7------------|-8-----------|-8---------12---||
B|-------------|--------------|-------------|---------------o||
G|-------------|--------------|-------------|----------------||
D|-------------|--------------|-------------|----------------||
A|-------------|--------------|-------------|---------------o||
E|-------------|--------------|-------------|----------------||

   2.
   E5                           C/E
e|-------------|--------------|-------------|---------------|
B|-------------|--------------|-------------|---------------|
G|-------------|--------------|-------------|---------------|
D|-------------|--------------|-------------|------------2--|
A|-2-----------|-2------------|-3-----------|-3-------------|
E|-0-----------|-0------------|-0-----------|-0-------------|
|
 | TP  TPTP  TP  TP  TPTPTPTP   TP  TPTP  TP  TP  TPTPTP TP
e|-------------|--------------|-------------|---------------|
B|-------------|--------------|-------------|---------------|
G|-------------|--------------|-------------|---------------|
D|-------------|--------------|-------------|---------------|
A|-------------|--------------|-------------|---------------|
E|-7---0-7---0-|-7---0-7-0-7--|-8---0-8---0-|-8---0-8-0--8--|
|
 | TP            TP             TP            TP         TP
e|-7-----------|-7------------|-8-----------|-8---------12--|
B|-------------|--------------|-------------|---------------|
G|-------------|--------------|-------------|---------------|
D|-------------|--------------|-------------|---------------|
A|-------------|--------------|-------------|---------------|
E|-------------|--------------|-------------|---------------|

     E5                                    C/E
                  PM|                PM|                PM|                PM|
e||-------------------|------------------|------------------|-------------------|
B||o------------------|------------------|------------------|-------------------|
G||-------------------|------------------|------------------|-------------------|
D||-------------------|------------------|------------------|-------------------|
A||o-2--2-2---2-2-----|-2--2-2---2-2-----|-3--3-3---3-3-----|-3--3-3---3-3------|
E||--0--0-0---0-0-0-0-|-0--0-0---0-0-0-0-|-0--0-0---0-0-0-0-|-0--0-0---0-0-0-0--|
|
 |   TP   TPTP    TP    TP   TPTPTPTP      TP   TPTP    TP    TP   TPTPTPTP
e||-------------------|------------------|------------------|-------------------|
B||o------------------|------------------|------------------|-------------------|
G||-------------------|------------------|------------------|-------------------|
D||-------------------|------------------|------------------|-------------------|
A||o------------------|------------------|------------------|-------------------|
E||--7----0-7-----0---|-7----0-7-0-7-----|-8----0-8-----0---|-8----0-8-0-8------|
|
 |   TP                 TP                 TP                 TP
e||--7----------------|-7----------------|-8----------------|-8-----------------|
B||o------------------|------------------|------------------|-------------------|
G||-------------------|------------------|------------------|-------------------|
D||-------------------|------------------|------------------|-------------------|
A||o------------------|------------------|------------------|-------------------|
E||-------------------|------------------|------------------|-------------------|

   E5                                    C/E
                PM|                PM|                PM|                 PM|
e|------------------|------------------|------------------|--------------------||
B|------------------|------------------|------------------|-------------------o||
G|------------------|------------------|------------------|--------------------||
D|------------------|------------------|------------------|--------------------||
A|-2--2-2---2-2-----|-2--2-2---2-2-----|-3--3-3---3-3-----|-3--3-3---3--3-----o||
E|-0--0-0---0-0-0-0-|-0--0-0---0-0-0-0-|-0--0-0---0-0-0-0-|-0--0-0---0--0-0-0--||
|
 | TP   TPTP    TP    TP   TPTPTPTP      TP   TPTP    TP    TP   TPTPTP TP
e|------------------|------------------|------------------|--------------------||
B|------------------|------------------|------------------|-------------------o||
G|------------------|------------------|------------------|--------------------||
D|------------------|------------------|------------------|--------------------||
A|------------------|------------------|------------------|-------------------o||
E|-7----0-7-----0---|-7----0-7-0-7-----|-8----0-8-----0---|-8----0-8-0--8------||
|
 | TP                 TP                 TP                 TP          TP
e|-7----------------|-7----------------|-8----------------|-8----------12------||
B|------------------|------------------|------------------|-------------------o||
G|------------------|------------------|------------------|--------------------||
D|------------------|------------------|------------------|--------------------||
A|------------------|------------------|------------------|-------------------o||
E|------------------|------------------|------------------|--------------------||

     E5
                  PM|                 PM|
e||-------------------|-------------------|
B||o------------------|-------------------|
G||-------------------|-------------------|
D||-------------------|-------------------|
A||o-2--2-2---2-2-----|--2--2-2---2-2-----|
E||--0--0-0---0-0-0-0-|--0--0-0---0-0-0-0-|
|
 |   TP   TPTP    TP     TP   TPTPTPTP
e||-------------------|-------------------|
B||o------------------|-------------------|
G||-------------------|-------------------|
D||-------------------|-------------------|
A||o------------------|-------------------|
E||--7----0-7-----0---|--7----0-7-0-7-----|
|
 |   TP                  TP
e||--7----------------|-12----------------|
B||o------------------|-------------------|
G||-------------------|-------------------|
D||-------------------|-------------------|
A||o------------------|-------------------|
E||-------------------|-------------------|

   C/E
                PM|                 PM|
                                          4x
e|------------------|---------------------||
B|------------------|--------------------o||
G|------------------|---------------------||
D|------------------|---------------------||
A|-3--3-3---3-3-----|--3--3-3---3-3------o||
E|-0--0-0---0-0-0-0-|--0--0-0---0-0-0-0---||
|
 | TP   TPTP    TP     TP   TPTPTPTP
 |                                        4x
e|------------------|---------------------||
B|------------------|--------------------o||
G|------------------|---------------------||
D|------------------|---------------------||
A|------------------|--------------------o||
E|-8----0-8-----0---|--8----0-8-0-8-------||
|
 | TP                  TP
 |                                        4x
e|-8----------------|-12------------------||
B|------------------|--------------------o||
G|------------------|---------------------||
D|------------------|---------------------||
A|------------------|--------------------o||
E|------------------|---------------------||

     $
     E5
                  PM|                PM|
e||-------------------|------------------|
B||o------------------|------------------|
G||-------------------|------------------|
D||-------------------|------------------|
A||o-2--2-2---2-2-----|-2--2-2---2-2-----|
E||--0--0-0---0-0-0-0-|-0--0-0---0-0-0-0-|
|
 |   TP   TPTP    TP    TP   TPTPTPTP
e||-------------------|------------------|
B||o------------------|------------------|
G||-------------------|------------------|
D||-------------------|------------------|
A||o------------------|------------------|
E||--7----0-7-----0---|-7----0-7-0-7-----|

   C/E
                PM|                PM|
                                         4x
e|------------------|--------------------||
B|------------------|-------------------o||
G|------------------|--------------------||
D|------------------|--------------------||
A|-3--3-3---3-3-----|-3--3-3---3-3------o||
E|-0--0-0---0-0-0-0-|-0--0-0---0-0-0-0---||
|
 | TP   TPTP    TP    TP   TPTPTPTP
 |                                       4x
e|------------------|--------------------||
B|------------------|-------------------o||
G|------------------|--------------------||
D|------------------|--------------------||
A|------------------|-------------------o||
E|-8----0-8-----0---|-8----0-8-0-8-------||

   $$
   Em                              Cmaj7/E
e|--------0-----|---------0------|--------0-----|---------0------|
B|------0-------|-------0--------|------0-------|-------0--------|
G|----0---------|-----0----------|----0---------|-----0----------|
D|-2------------|--2-------------|-2------------|--2-------------|
A|-2------------|--2-------------|-3------------|--3-------------|
E|-0------------|--0-------------|-0------------|--0-------------|
|
 | TP   TPTP  TP   TP   TPTPTPTP   TP   TPTP  TP   TP   TPTPTPTP
e|--------------|----------------|--------------|----------------|
B|--------------|----------------|--------------|----------------|
G|--------------|----------------|--------------|----------------|
D|--------------|----------------|--------------|----------------|
A|--------------|----------------|--------------|----------------|
E|-7----0-7---0-|--7----0-7-0-7--|-8----0-8---0-|--8----0-8-0-8--|
|
 | TP              TP              TP              TP
e|-7------------|-12-------------|-8------------|-12-------------|
B|--------------|----------------|--------------|----------------|
G|--------------|----------------|--------------|----------------|
D|--------------|----------------|--------------|----------------|
A|--------------|----------------|--------------|----------------|
E|--------------|----------------|--------------|----------------|

   Em                              Cmaj7/E
e|--------0-----|---------0------|--------0-----|---------0--------|
B|------0-------|-------0--------|------0-------|-------0----------|
G|----0---------|-----0----------|----0---------|-----0------------|
D|-2------------|--2-------------|-2------------|--2---------------|
A|-2------------|--2-------------|-3------------|--3-----------3---|
E|-0------------|--0-------------|-0------------|--0---------------|
|
 | TP   TPTP  TP   TP   TPTPTPTP   TP   TPTP  TP   TP   TPTPTP TP
e|--------------|----------------|--------------|------------------|
B|--------------|----------------|--------------|------------------|
G|--------------|----------------|--------------|------------------|
D|--------------|----------------|--------------|------------------|
A|--------------|----------------|--------------|------------------|
E|-7----0-7---0-|--7----0-7-0-7--|-8----0-8---0-|--8----0-8-0--8---|
|
 | TP              TP              TP              TP
e|-7------------|-12-------------|-8------------|-12---------------|
B|--------------|----------------|--------------|------------------|
G|--------------|----------------|--------------|------------------|
D|--------------|----------------|--------------|------------------|
A|--------------|----------------|--------------|------------------|
E|--------------|----------------|--------------|------------------|

   Em                              Cmaj7/E
e|--------0-----|---------0------|--------0-----|---------0------|
B|------0-------|-------0--------|------0-------|-------0--------|
G|----0---------|-----0----------|----0---------|-----0----------|
D|-2------------|--2-------------|-2------------|--2-------------|
A|-2------------|--2-------------|-3------------|--3-------------|
E|-0------------|--0-------------|-0------------|--0-------------|
|
 | TP   TPTP  TP   TP   TPTPTPTP   TP   TPTP  TP   TP   TPTPTPTP
e|--------------|----------------|--------------|----------------|
B|--------------|----------------|--------------|----------------|
G|--------------|----------------|--------------|----------------|
D|--------------|----------------|--------------|----------------|
A|--------------|----------------|--------------|----------------|
E|-7----0-7---0-|--7----0-7-0-7--|-8----0-8---0-|--8----0-8-0-8--|
|
 | TP              TP              TP              TP
e|-7------------|-12-------------|-8------------|-12-------------|
B|--------------|----------------|--------------|----------------|
G|--------------|----------------|--------------|----------------|
D|--------------|----------------|--------------|----------------|
A|--------------|----------------|--------------|----------------|
E|--------------|----------------|--------------|----------------|

                                                              D.S.
                                                              D.S.
   Em                              Cmaj7/E
e|--------0-----|---------0------|--------0-----|---------0--------|
B|------0-------|-------0--------|------0-------|-------0----------|
G|----0---------|-----0----------|----0---------|-----0------------|
D|-2------------|--2-------------|-2------------|--2-----------2---|
A|-2------------|--2-------------|-3------------|--3----------(3)--|
E|-0------------|--0-------------|-0------------|--0---------------|
|
 | TP   TPTP  TP   TP   TPTPTPTP   TP   TPTP  TP   TP   TPTPTP TP
e|--------------|----------------|--------------|------------------|
B|--------------|----------------|--------------|------------------|
G|--------------|----------------|--------------|------------------|
D|--------------|----------------|--------------|------------------|
A|--------------|----------------|--------------|------------------|
E|-7----0-7---0-|--7----0-7-0-7--|-8----0-8---0-|--8----0-8-0--8---|
|
 | TP              TP              TP              TP
e|-7------------|-12-------------|-8------------|-12---------------|
B|--------------|----------------|--------------|------------------|
G|--------------|----------------|--------------|------------------|
D|--------------|----------------|--------------|------------------|
A|--------------|----------------|--------------|------------------|
E|--------------|----------------|--------------|------------------|

                                                  1.             2.
     Em                           Cmaj7/E
e||-----------0----|------------|----------0----|-------------||-------|
B||o--------0------|------------|--------0------|------------o||--0----|
G||------0---------|------------|-----0---------|-------------||-------|
D||--2-------------|------------|-2-------------|-------------||-------|
A||o-2-------------|------------|-3--(3)--------|------------o||-------|
E||--0-------------|------------|-0-------------|-------------||-------|
|
e||--7-------------|-12---------|-8-------------|-12----------||-12----|
B||o---------------|------------|---------------|------------o||-------|
G||----------------|------------|---------------|-------------||-------|
D||----------------|------------|---------------|-------------||-------|
A||o---------------|------------|---------------|------------o||-------|
E||----------------|------------|---------------|-------------||-------|

                                                 1.             2.
     Em                           Cmaj7/E
e||-----------0----|------------|----------0----|-------------||-------|
B||o--------0------|------------|--------0------|------------o||--0----|
G||------0---------|------------|-----0---------|-------------||-------|
D||--2-------------|------------|-2-------------|-------------||-------|
A||o-2-------------|------------|-3--(3)--------|------------o||-------|
E||--0-------------|------------|-0-------------|-------------||-------|
|
e||--7-------------|-12---------|-8-------------|-12----------||-12----|
B||o---------------|------------|---------------|------------o||-------|
G||----------------|------------|---------------|-------------||-------|
D||----------------|------------|---------------|-------------||-------|
A||o---------------|------------|---------------|------------o||-------|
E||----------------|------------|---------------|-------------||-------|

     Em                        Cmaj7/E
e||--------0-----|-----------|-------0-----|------------||
B||o-------------|------0----|-------------|------0----o||
G||--------------|-0---------|-------------|-0----------||
D||--2-----------|-----------|-2-----------|------------||
A||o-2-----------|-----------|-3----(3)----|-----------o||
E||--0-----------|-----------|-0-----------|------------||

     Em
e||----------0----------|------------------|
B||o--------------------|--------0---------|
G||---------------------|-0----------------|
D||--2------------------|------------------|
A||o-2------------------|------------------|
E||--0------------------|------------------|
|
 |                  PM|                PM|
e||---------------------|------------------|
B||o--------------------|------------------|
G||---------------------|------------------|
D||---------------------|------------------|
A||o-2--2-2-----2-2-----|-2--2-2---2-2-----|
E||--0--0-0-----0-0-0-0-|-0--0-0---0-0-0-0-|

   Cmaj7/E
                                           8x
e|---------0----------|--------------------||
B|--------------------|--------0----------o||
G|--------------------|-0------------------||
D|-2------------------|--------------------||
A|-3------(3)---------|-------------------o||
E|-0------------------|--------------------||
|
 |                PM|                PM|
 |                                         8x
e|--------------------|--------------------||
B|--------------------|-------------------o||
G|--------------------|--------------------||
D|--------------------|--------------------||
A|-3--3-3-----3-3-----|-3--3-3---3-3------o||
E|-0--0-0-----0-0-0-0-|-0--0-0---0-0-0-0---||

     Em
e||---------------------|-------------------|
B||o--------------------|---------0---------|
G||----------0----------|-------------------|
D||--2------------------|--2----------------|
A||o-2------------------|-------------------|
E||--0------------------|-------------------|
|
 |                  PM|                 PM|
e||---------------------|-------------------|
B||o--------------------|-------------------|
G||---------------------|-------------------|
D||---------------------|-------------------|
A||o-2--2-2-----2-2-----|--2--2-2---2-2-----|
E||--0--0-0-----0-0-0-0-|--0--0-0---0-0-0-0-|
|
 |   TP                    TP
e||--7------------------|-12----------------|
B||o--------------------|-------------------|
G||---------------------|-------------------|
D||---------------------|-------------------|
A||o--------------------|-------------------|
E||---------------------|-------------------|

   Cmaj7/E
                                          4x
e|--------0---------|---------0-----------||
B|------------------|--------------------o||
G|------------------|---------------------||
D|-2----------------|--2------------------||
A|-3----------------|--------------------o||
E|-0----------------|---------------------||
|
 |              PM|                 PM|
 |                                        4x
e|------------------|---------------------||
B|------------------|--------------------o||
G|------------------|---------------------||
D|------------------|---------------------||
A|-3--3-3---3-3-----|--3--3-3---3-3------o||
E|-0--0-0---0-0-0-0-|--0--0-0---0-0-0-0---||
|
 | TP                  TP
 |                                        4x
e|-8----------------|-12------------------||
B|------------------|--------------------o||
G|------------------|---------------------||
D|------------------|---------------------||
A|------------------|--------------------o||
E|------------------|---------------------||

     Em                    E5
e||----------------------|---------------------|
B||o---------------------|----0----0---0---0---|
G||-----0----0---0---0---|---------------------|
D||--2-----2---2---2-----|-2-----2---2---2-----|
A||o---------------------|---------------------|
E||----------------------|---------------------|
|
 |                   PM|                   PM|
e||----------------------|---------------------|
B||o---------------------|---------------------|
G||----------------------|---------------------|
D||----------------------|---------------------|
A||o-2-----2-2---2-2-----|-2-----2-2---2-2-----|
E||--0-----0-0---0-0-0-0-|-0-----0-0---0-0-0-0-|

   C/E
                                             4x
e|----0----0---0---0---|---0---0---0---0-----||
B|---------------------|--------------------o||
G|---------------------|---------------------||
D|-2-----2---2---2-----|-2---2---2---2-------||
A|---------------------|--------------------o||
E|---------------------|---------------------||
|
 |                 PM|                 PM|
 |                                           4x
e|---------------------|---------------------||
B|---------------------|--------------------o||
G|---------------------|---------------------||
D|---------------------|---------------------||
A|-3-----3-3---3-3-----|-3---3-3---3-3------o||
E|-0-----0-0---0-0-0-0-|-0---0-0---0-0-0-0---||

     Em                    E5
e||----------------------|----------------------|
B||o---------------------|-----0----0---0---0---|
G||-----0----0---0---0---|----------------------|
D||--2-----2---2---2-----|--2-----2---2---2-----|
A||o---------------------|----------------------|
E||----------------------|----------------------|
|
 |                   PM|                    PM|
e||----------------------|----------------------|
B||o---------------------|----------------------|
G||----------------------|----------------------|
D||----------------------|----------------------|
A||o-2-----2-2---2-2-----|--2-----2-2---2-2-----|
E||--0-----0-0---0-0-0-0-|--0-----0-0---0-0-0-0-|
|
 |   TP                     TP
e||--7-------------------|-12-------------------|
B||o---------------------|----------------------|
G||----------------------|----------------------|
D||----------------------|----------------------|
A||o---------------------|----------------------|
E||----------------------|----------------------|

   C/E
                                              4x
e|----0----0---0---0---|----0---0---0---0-----||
B|---------------------|---------------------o||
G|---------------------|----------------------||
D|-2-----2---2---2-----|--2---2---2---2-------||
A|---------------------|---------------------o||
E|---------------------|----------------------||
|
 |                 PM|                  PM|
 |                                            4x
e|---------------------|----------------------||
B|---------------------|---------------------o||
G|---------------------|----------------------||
D|---------------------|----------------------||
A|-3-----3-3---3-3-----|--3---3-3---3-3------o||
E|-0-----0-0---0-0-0-0-|--0---0-0---0-0-0-0---||
|
 | TP                     TP
 |                                            4x
e|-8-------------------|-12-------------------||
B|---------------------|---------------------o||
G|---------------------|----------------------||
D|---------------------|----------------------||
A|---------------------|---------------------o||
E|---------------------|----------------------||

     Em                    E5
e||----------------------|---------------------|
B||o---------------------|----0----0---0---0---|
G||-----0----0---0---0---|---------------------|
D||--2-----2---2---2-----|-2-----2---2---2-----|
A||o---------------------|---------------------|
E||----------------------|---------------------|
|
 |                   PM|                   PM|
e||----------------------|---------------------|
B||o---------------------|---------------------|
G||----------------------|---------------------|
D||----------------------|---------------------|
A||o-2-----2-2---2-2-----|-2-----2-2---2-2-----|
E||--0-----0-0---0-0-0-0-|-0-----0-0---0-0-0-0-|

   C/E
                                             4x
e|----0----0---0---0---|---0---0---0---0-----||
B|---------------------|--------------------o||
G|---------------------|---------------------||
D|-2-----2---2---2-----|-2---2---2---2-------||
A|---------------------|--------------------o||
E|---------------------|---------------------||
|
 |                 PM|                 PM|
 |                                           4x
e|---------------------|---------------------||
B|---------------------|--------------------o||
G|---------------------|---------------------||
D|---------------------|---------------------||
A|-3-----3-3---3-3-----|-3---3-3---3-3------o||
E|-0-----0-0---0-0-0-0-|-0---0-0---0-0-0-0---||

     Em                    E5
e||----------------------|----------------------|
B||o---------------------|-----0----0---0---0---|
G||-----0----0---0---0---|----------------------|
D||--2-----2---2---2-----|--2-----2---2---2-----|
A||o---------------------|----------------------|
E||----------------------|----------------------|
|
 |                   PM|                    PM|
e||----------------------|----------------------|
B||o---------------------|----------------------|
G||----------------------|----------------------|
D||----------------------|----------------------|
A||o-2-----2-2---2-2-----|--2-----2-2---2-2-----|
E||--0-----0-0---0-0-0-0-|--0-----0-0---0-0-0-0-|
|
 |   TP                     TP
e||--7-------------------|-12-------------------|
B||o---------------------|----------------------|
G||----------------------|----------------------|
D||----------------------|----------------------|
A||o---------------------|----------------------|
E||----------------------|----------------------|

   C/E
                                              4x
e|----0----0---0---0---|----0---0---0---0-----||
B|---------------------|---------------------o||
G|---------------------|----------------------||
D|-2-----2---2---2-----|--2---2---2---2-------||
A|---------------------|---------------------o||
E|---------------------|----------------------||
|
 |                 PM|                  PM|
 |                                            4x
e|---------------------|----------------------||
B|---------------------|---------------------o||
G|---------------------|----------------------||
D|---------------------|----------------------||
A|-3-----3-3---3-3-----|--3---3-3---3-3------o||
E|-0-----0-0---0-0-0-0-|--0---0-0---0-0-0-0---||
|
 | TP                     TP
 |                                            4x
e|-8-------------------|-12-------------------||
B|---------------------|---------------------o||
G|---------------------|----------------------||
D|---------------------|----------------------||
A|---------------------|---------------------o||
E|---------------------|----------------------||

     Em
e||----------------------|-------------------|
B||o---------------------|----0----0---0---0-|
G||-----0----0-----0---0-|-------------------|
D||--2-----2----2----2---|-2-----2---2---2---|
A||o---------------------|-------------------|
E||----------------------|-------------------|
|
e||----------------------|-------------------|
B||o---------------------|-----------0-------|
G||-------------0--------|-------------------|
D||--2-------------------|-2-----------------|
A||o-2-------------------|-------------------|
E||--0-------------------|-------------------|

   C/E
                                         4x
e|----0----0---0---0-|---0---0---0---0---||
B|-------------------|------------------o||
G|-------------------|-------------------||
D|-2-----2---2---2---|-2---2---2---2-----||
A|-------------------|------------------o||
E|-------------------|-------------------||
|
 |                                       4x
e|-----------0-------|---------0---------||
B|-------------------|------------------o||
G|-------------------|-------------------||
D|-2-----------------|-2-----------------||
A|-3-----------------|------------------o||
E|-0-----------------|-------------------||

     Em
e||----------------------|--------------------|
B||o---------------------|-----0----0---0---0-|
G||-----0----0-----0---0-|--------------------|
D||--2-----2----2----2---|--2-----2---2---2---|
A||o---------------------|--------------------|
E||----------------------|--------------------|
|
e||----------------------|--------------------|
B||o---------------------|------------0-------|
G||-------------0--------|--------------------|
D||--2-------------------|--2-----------------|
A||o-2-------------------|--------------------|
E||--0-------------------|--------------------|
|
 |   TP                     TP
e||--7-------------------|-12-----------------|
B||o---------------------|--------------------|
G||----------------------|--------------------|
D||----------------------|--------------------|
A||o---------------------|--------------------|
E||----------------------|--------------------|

   C/E
                                          4x
e|----0----0---0---0-|----0---0---0---0---||
B|-------------------|-------------------o||
G|-------------------|--------------------||
D|-2-----2---2---2---|--2---2---2---2-----||
A|-------------------|-------------------o||
E|-------------------|--------------------||
|
 |                                        4x
e|-----------0-------|----------0---------||
B|-------------------|-------------------o||
G|-------------------|--------------------||
D|-2-----------------|--2-----------------||
A|-3-----------------|-------------------o||
E|-0-----------------|--------------------||
|
 | TP                   TP
 |                                        4x
e|-8-----------------|-12-----------------||
B|-------------------|-------------------o||
G|-------------------|--------------------||
D|-------------------|--------------------||
A|-------------------|-------------------o||
E|-------------------|--------------------||

     Em
e||----------------------|-------------------|
B||o---------------------|----0----0---0---0-|
G||-----0----0-----0---0-|-------------------|
D||--2-----2----2----2---|-2-----2---2---2---|
A||o---------------------|-------------------|
E||----------------------|-------------------|
|
e||----------------------|-------------------|
B||o---------------------|-----------0-------|
G||-------------0--------|-------------------|
D||--2-------------------|-2-----------------|
A||o-2-------------------|-------------------|
E||--0-------------------|-------------------|

   C/E
                                         4x
e|----0----0---0---0-|---0---0---0---0---||
B|-------------------|------------------o||
G|-------------------|-------------------||
D|-2-----2---2---2---|-2---2---2---2-----||
A|-------------------|------------------o||
E|-------------------|-------------------||
|
 |                                       4x
e|-----------0-------|---------0---------||
B|-------------------|------------------o||
G|-------------------|-------------------||
D|-2-----------------|-2-----------------||
A|-3-----------------|------------------o||
E|-0-----------------|-------------------||

     Em                  E5
e||--------------------|-------------------|
B||o-------------------|----0----0---0---0-|
G||-----0----0---0---0-|-------------------|
D||--2-----2---2---2---|-2-----2---2---2---|
A||o-------------------|-------------------|
E||--------------------|-------------------|

   E
                                        4x
e|----0----0---0---0-|---0---0---0---0--||------------|--------*|
B|-------------------|-----------------o||------------|--------*|
G|-------------------|------------------||------------|--------*|
D|-2-----2---2---2---|-2---2---2---2----||------------|--------*|
A|-------------------|-----------------o||------------|--------*|
E|-------------------|------------------||------------|--------*|Words and Music by Atomization
Arranged by Atomization
Transcribed by Atomization

    Intro
     Q=140
     E5                    C/E
    4/4
     Gtr I
e||-----------|----------|----------|------|
B||o----------|----------|----------|------|
G||-----------|----------|----------|------|
D||-----------|----------|----------|------|
A||o-2--------|-2--------|-3--------|-3----|
E||--0--------|-0--------|-0--------|-0----|

   1.
   E5                    C/E
e|----------|----------|----------|------------||
B|----------|----------|----------|-----------o||
G|----------|----------|----------|------------||
D|----------|----------|----------|------------||
A|-2--------|-2--------|-3--------|-3------3--o||
E|-0--------|-0--------|-0--------|-0----------||

   2.
   E5                    C/E
e|----------|----------|----------|-----------|
B|----------|----------|----------|-----------|
G|----------|----------|----------|-----------|
D|----------|----------|----------|--------2--|
A|-2--------|-2--------|-3--------|-3---------|
E|-0--------|-0--------|-0--------|-0---------|

     E5                    C/E
e||-----------|----------|----------|------|
B||o----------|----------|----------|------|
G||-----------|----------|----------|------|
D||-----------|----------|----------|------|
A||o-2--------|-2--------|-3--------|-3----|
E||--0--------|-0--------|-0--------|-0----|
|
 |   TP         TP         TP         TP
e||-----------|----------|----------|------|
B||o----------|----------|----------|------|
G||-----------|----------|----------|------|
D||-----------|----------|----------|------|
A||o----------|----------|----------|------|
E||--7--------|-7--------|-8--------|-8----|

   1.
   E5                    C/E
e|----------|----------|----------|------------||
B|----------|----------|----------|-----------o||
G|----------|----------|----------|------------||
D|----------|----------|----------|------------||
A|-2--------|-2--------|-3--------|-3------3--o||
E|-0--------|-0--------|-0--------|-0----------||
|
 | TP         TP         TP         TP
e|----------|----------|----------|------------||
B|----------|----------|----------|-----------o||
G|----------|----------|----------|------------||
D|----------|----------|----------|------------||
A|----------|----------|----------|-----------o||
E|-7--------|-7--------|-8--------|-8----------||

   2.
e|----------|----------|----------|-----------|
B|----------|----------|----------|-----------|
G|----------|----------|----------|-----------|
D|----------|----------|----------|--------2--|
A|-2--------|-2--------|-3--------|-3---------|
E|-0--------|-0--------|-0--------|-0---------|
|
 | TP         TP         TP         TP
e|----------|----------|----------|-----------|
B|----------|----------|----------|-----------|
G|----------|----------|----------|-----------|
D|----------|----------|----------|-----------|
A|----------|----------|----------|-----------|
E|-7--------|-7--------|-8--------|-8---------|

     E5                           C/E
e||--------------|--------------|-------------|---------------|
B||o-------------|--------------|-------------|---------------|
G||--------------|--------------|-------------|---------------|
D||--------------|--------------|-------------|---------------|
A||o-2-----------|-2------------|-3-----------|-3-------------|
E||--0-----------|-0------------|-0-----------|-0-------------|
|
 |   TP  TPTP  TP  TP  TPTPTPTP   TP  TPTP  TP  TP  TPTPTPTP
e||--------------|--------------|-------------|---------------|
B||o-------------|--------------|-------------|---------------|
G||--------------|--------------|-------------|---------------|
D||--------------|--------------|-------------|---------------|
A||o-------------|--------------|-------------|---------------|
E||--7---0-7---0-|-7---0-7-0-7--|-8---0-8---0-|-8---0-8-0-8---|
|
 |   TP            TP             TP            TP
e||--7-----------|-7------------|-8-----------|-8-------------|
B||o-------------|--------------|-------------|---------------|
G||--------------|--------------|-------------|---------------|
D||--------------|--------------|-------------|---------------|
A||o-------------|--------------|-------------|---------------|
E||--------------|--------------|-------------|---------------|

   1.
   E5                           C/E
e|-------------|--------------|-------------|----------------||
B|-------------|--------------|-------------|---------------o||
G|-------------|--------------|-------------|----------------||
D|-------------|--------------|-------------|----------------||
A|-2-----------|-2------------|-3-----------|-3----------3--o||
E|-0-----------|-0------------|-0-----------|-0--------------||
|
 | TP  TPTP  TP  TP  TPTPTPTP   TP  TPTP  TP  TP  TPTPTP TP
e|-------------|--------------|-------------|----------------||
B|-------------|--------------|-------------|---------------o||
G|-------------|--------------|-------------|----------------||
D|-------------|--------------|-------------|----------------||
A|-------------|--------------|-------------|---------------o||
E|-7---0-7---0-|-7---0-7-0-7--|-8---0-8---0-|-8---0-8-0--8---||
|
 | TP            TP             TP            TP         TP
e|-7-----------|-7------------|-8-----------|-8---------12---||
B|-------------|--------------|-------------|---------------o||
G|-------------|--------------|-------------|----------------||
D|-------------|--------------|-------------|----------------||
A|-------------|--------------|-------------|---------------o||
E|-------------|--------------|-------------|----------------||

   2.
   E5                           C/E
e|-------------|--------------|-------------|---------------|
B|-------------|--------------|-------------|---------------|
G|-------------|--------------|-------------|---------------|
D|-------------|--------------|-------------|------------2--|
A|-2-----------|-2------------|-3-----------|-3-------------|
E|-0-----------|-0------------|-0-----------|-0-------------|
|
 | TP  TPTP  TP  TP  TPTPTPTP   TP  TPTP  TP  TP  TPTPTP TP
e|-------------|--------------|-------------|---------------|
B|-------------|--------------|-------------|---------------|
G|-------------|--------------|-------------|---------------|
D|-------------|--------------|-------------|---------------|
A|-------------|--------------|-------------|---------------|
E|-7---0-7---0-|-7---0-7-0-7--|-8---0-8---0-|-8---0-8-0--8--|
|
 | TP            TP             TP            TP         TP
e|-7-----------|-7------------|-8-----------|-8---------12--|
B|-------------|--------------|-------------|---------------|
G|-------------|--------------|-------------|---------------|
D|-------------|--------------|-------------|---------------|
A|-------------|--------------|-------------|---------------|
E|-------------|--------------|-------------|---------------|

     E5                                    C/E
                  PM|                PM|                PM|                PM|
e||-------------------|------------------|------------------|-------------------|
B||o------------------|------------------|------------------|-------------------|
G||-------------------|------------------|------------------|-------------------|
D||-------------------|------------------|------------------|-------------------|
A||o-2--2-2---2-2-----|-2--2-2---2-2-----|-3--3-3---3-3-----|-3--3-3---3-3------|
E||--0--0-0---0-0-0-0-|-0--0-0---0-0-0-0-|-0--0-0---0-0-0-0-|-0--0-0---0-0-0-0--|
|
 |   TP   TPTP    TP    TP   TPTPTPTP      TP   TPTP    TP    TP   TPTPTPTP
e||-------------------|------------------|------------------|-------------------|
B||o------------------|------------------|------------------|-------------------|
G||-------------------|------------------|------------------|-------------------|
D||-------------------|------------------|------------------|-------------------|
A||o------------------|------------------|------------------|-------------------|
E||--7----0-7-----0---|-7----0-7-0-7-----|-8----0-8-----0---|-8----0-8-0-8------|
|
 |   TP                 TP                 TP                 TP
e||--7----------------|-7----------------|-8----------------|-8-----------------|
B||o------------------|------------------|------------------|-------------------|
G||-------------------|------------------|------------------|-------------------|
D||-------------------|------------------|------------------|-------------------|
A||o------------------|------------------|------------------|-------------------|
E||-------------------|------------------|------------------|-------------------|

   E5                                    C/E
                PM|                PM|                PM|                 PM|
e|------------------|------------------|------------------|--------------------||
B|------------------|------------------|------------------|-------------------o||
G|------------------|------------------|------------------|--------------------||
D|------------------|------------------|------------------|--------------------||
A|-2--2-2---2-2-----|-2--2-2---2-2-----|-3--3-3---3-3-----|-3--3-3---3--3-----o||
E|-0--0-0---0-0-0-0-|-0--0-0---0-0-0-0-|-0--0-0---0-0-0-0-|-0--0-0---0--0-0-0--||
|
 | TP   TPTP    TP    TP   TPTPTPTP      TP   TPTP    TP    TP   TPTPTP TP
e|------------------|------------------|------------------|--------------------||
B|------------------|------------------|------------------|-------------------o||
G|------------------|------------------|------------------|--------------------||
D|------------------|------------------|------------------|--------------------||
A|------------------|------------------|------------------|-------------------o||
E|-7----0-7-----0---|-7----0-7-0-7-----|-8----0-8-----0---|-8----0-8-0--8------||
|
 | TP                 TP                 TP                 TP          TP
e|-7----------------|-7----------------|-8----------------|-8----------12------||
B|------------------|------------------|------------------|-------------------o||
G|------------------|------------------|------------------|--------------------||
D|------------------|------------------|------------------|--------------------||
A|------------------|------------------|------------------|-------------------o||
E|------------------|------------------|------------------|--------------------||

     E5
                  PM|                 PM|
e||-------------------|-------------------|
B||o------------------|-------------------|
G||-------------------|-------------------|
D||-------------------|-------------------|
A||o-2--2-2---2-2-----|--2--2-2---2-2-----|
E||--0--0-0---0-0-0-0-|--0--0-0---0-0-0-0-|
|
 |   TP   TPTP    TP     TP   TPTPTPTP
e||-------------------|-------------------|
B||o------------------|-------------------|
G||-------------------|-------------------|
D||-------------------|-------------------|
A||o------------------|-------------------|
E||--7----0-7-----0---|--7----0-7-0-7-----|
|
 |   TP                  TP
e||--7----------------|-12----------------|
B||o------------------|-------------------|
G||-------------------|-------------------|
D||-------------------|-------------------|
A||o------------------|-------------------|
E||-------------------|-------------------|

   C/E
                PM|                 PM|
                                          4x
e|------------------|---------------------||
B|------------------|--------------------o||
G|------------------|---------------------||
D|------------------|---------------------||
A|-3--3-3---3-3-----|--3--3-3---3-3------o||
E|-0--0-0---0-0-0-0-|--0--0-0---0-0-0-0---||
|
 | TP   TPTP    TP     TP   TPTPTPTP
 |                                        4x
e|------------------|---------------------||
B|------------------|--------------------o||
G|------------------|---------------------||
D|------------------|---------------------||
A|------------------|--------------------o||
E|-8----0-8-----0---|--8----0-8-0-8-------||
|
 | TP                  TP
 |                                        4x
e|-8----------------|-12------------------||
B|------------------|--------------------o||
G|------------------|---------------------||
D|------------------|---------------------||
A|------------------|--------------------o||
E|------------------|---------------------||

     $
     E5
                  PM|                PM|
e||-------------------|------------------|
B||o------------------|------------------|
G||-------------------|------------------|
D||-------------------|------------------|
A||o-2--2-2---2-2-----|-2--2-2---2-2-----|
E||--0--0-0---0-0-0-0-|-0--0-0---0-0-0-0-|
|
 |   TP   TPTP    TP    TP   TPTPTPTP
e||-------------------|------------------|
B||o------------------|------------------|
G||-------------------|------------------|
D||-------------------|------------------|
A||o------------------|------------------|
E||--7----0-7-----0---|-7----0-7-0-7-----|

   C/E
                PM|                PM|
                                         4x
e|------------------|--------------------||
B|------------------|-------------------o||
G|------------------|--------------------||
D|------------------|--------------------||
A|-3--3-3---3-3-----|-3--3-3---3-3------o||
E|-0--0-0---0-0-0-0-|-0--0-0---0-0-0-0---||
|
 | TP   TPTP    TP    TP   TPTPTPTP
 |                                       4x
e|------------------|--------------------||
B|------------------|-------------------o||
G|------------------|--------------------||
D|------------------|--------------------||
A|------------------|-------------------o||
E|-8----0-8-----0---|-8----0-8-0-8-------||

   $$
   Em                              Cmaj7/E
e|--------0-----|---------0------|--------0-----|---------0------|
B|------0-------|-------0--------|------0-------|-------0--------|
G|----0---------|-----0----------|----0---------|-----0----------|
D|-2------------|--2-------------|-2------------|--2-------------|
A|-2------------|--2-------------|-3------------|--3-------------|
E|-0------------|--0-------------|-0------------|--0-------------|
|
 | TP   TPTP  TP   TP   TPTPTPTP   TP   TPTP  TP   TP   TPTPTPTP
e|--------------|----------------|--------------|----------------|
B|--------------|----------------|--------------|----------------|
G|--------------|----------------|--------------|----------------|
D|--------------|----------------|--------------|----------------|
A|--------------|----------------|--------------|----------------|
E|-7----0-7---0-|--7----0-7-0-7--|-8----0-8---0-|--8----0-8-0-8--|
|
 | TP              TP              TP              TP
e|-7------------|-12-------------|-8------------|-12-------------|
B|--------------|----------------|--------------|----------------|
G|--------------|----------------|--------------|----------------|
D|--------------|----------------|--------------|----------------|
A|--------------|----------------|--------------|----------------|
E|--------------|----------------|--------------|----------------|

   Em                              Cmaj7/E
e|--------0-----|---------0------|--------0-----|---------0--------|
B|------0-------|-------0--------|------0-------|-------0----------|
G|----0---------|-----0----------|----0---------|-----0------------|
D|-2------------|--2-------------|-2------------|--2---------------|
A|-2------------|--2-------------|-3------------|--3-----------3---|
E|-0------------|--0-------------|-0------------|--0---------------|
|
 | TP   TPTP  TP   TP   TPTPTPTP   TP   TPTP  TP   TP   TPTPTP TP
e|--------------|----------------|--------------|------------------|
B|--------------|----------------|--------------|------------------|
G|--------------|----------------|--------------|------------------|
D|--------------|----------------|--------------|------------------|
A|--------------|----------------|--------------|------------------|
E|-7----0-7---0-|--7----0-7-0-7--|-8----0-8---0-|--8----0-8-0--8---|
|
 | TP              TP              TP              TP
e|-7------------|-12-------------|-8------------|-12---------------|
B|--------------|----------------|--------------|------------------|
G|--------------|----------------|--------------|------------------|
D|--------------|----------------|--------------|------------------|
A|--------------|----------------|--------------|------------------|
E|--------------|----------------|--------------|------------------|

   Em                              Cmaj7/E
e|--------0-----|---------0------|--------0-----|---------0------|
B|------0-------|-------0--------|------0-------|-------0--------|
G|----0---------|-----0----------|----0---------|-----0----------|
D|-2------------|--2-------------|-2------------|--2-------------|
A|-2------------|--2-------------|-3------------|--3-------------|
E|-0------------|--0-------------|-0------------|--0-------------|
|
 | TP   TPTP  TP   TP   TPTPTPTP   TP   TPTP  TP   TP   TPTPTPTP
e|--------------|----------------|--------------|----------------|
B|--------------|----------------|--------------|----------------|
G|--------------|----------------|--------------|----------------|
D|--------------|----------------|--------------|----------------|
A|--------------|----------------|--------------|----------------|
E|-7----0-7---0-|--7----0-7-0-7--|-8----0-8---0-|--8----0-8-0-8--|
|
 | TP              TP              TP              TP
e|-7------------|-12-------------|-8------------|-12-------------|
B|--------------|----------------|--------------|----------------|
G|--------------|----------------|--------------|----------------|
D|--------------|----------------|--------------|----------------|
A|--------------|----------------|--------------|----------------|
E|--------------|----------------|--------------|----------------|

                                                              D.S.
                                                              D.S.
   Em                              Cmaj7/E
e|--------0-----|---------0------|--------0-----|---------0--------|
B|------0-------|-------0--------|------0-------|-------0----------|
G|----0---------|-----0----------|----0---------|-----0------------|
D|-2------------|--2-------------|-2------------|--2-----------2---|
A|-2------------|--2-------------|-3------------|--3----------(3)--|
E|-0------------|--0-------------|-0------------|--0---------------|
|
 | TP   TPTP  TP   TP   TPTPTPTP   TP   TPTP  TP   TP   TPTPTP TP
e|--------------|----------------|--------------|------------------|
B|--------------|----------------|--------------|------------------|
G|--------------|----------------|--------------|------------------|
D|--------------|----------------|--------------|------------------|
A|--------------|----------------|--------------|------------------|
E|-7----0-7---0-|--7----0-7-0-7--|-8----0-8---0-|--8----0-8-0--8---|
|
 | TP              TP              TP              TP
e|-7------------|-12-------------|-8------------|-12---------------|
B|--------------|----------------|--------------|------------------|
G|--------------|----------------|--------------|------------------|
D|--------------|----------------|--------------|------------------|
A|--------------|----------------|--------------|------------------|
E|--------------|----------------|--------------|------------------|

                                                  1.             2.
     Em                           Cmaj7/E
e||-----------0----|------------|----------0----|-------------||-------|
B||o--------0------|------------|--------0------|------------o||--0----|
G||------0---------|------------|-----0---------|-------------||-------|
D||--2-------------|------------|-2-------------|-------------||-------|
A||o-2-------------|------------|-3--(3)--------|------------o||-------|
E||--0-------------|------------|-0-------------|-------------||-------|
|
e||--7-------------|-12---------|-8-------------|-12----------||-12----|
B||o---------------|------------|---------------|------------o||-------|
G||----------------|------------|---------------|-------------||-------|
D||----------------|------------|---------------|-------------||-------|
A||o---------------|------------|---------------|------------o||-------|
E||----------------|------------|---------------|-------------||-------|

                                                 1.             2.
     Em                           Cmaj7/E
e||-----------0----|------------|----------0----|-------------||-------|
B||o--------0------|------------|--------0------|------------o||--0----|
G||------0---------|------------|-----0---------|-------------||-------|
D||--2-------------|------------|-2-------------|-------------||-------|
A||o-2-------------|------------|-3--(3)--------|------------o||-------|
E||--0-------------|------------|-0-------------|-------------||-------|
|
e||--7-------------|-12---------|-8-------------|-12----------||-12----|
B||o---------------|------------|---------------|------------o||-------|
G||----------------|------------|---------------|-------------||-------|
D||----------------|------------|---------------|-------------||-------|
A||o---------------|------------|---------------|------------o||-------|
E||----------------|------------|---------------|-------------||-------|

     Em                        Cmaj7/E
e||--------0-----|-----------|-------0-----|------------||
B||o-------------|------0----|-------------|------0----o||
G||--------------|-0---------|-------------|-0----------||
D||--2-----------|-----------|-2-----------|------------||
A||o-2-----------|-----------|-3----(3)----|-----------o||
E||--0-----------|-----------|-0-----------|------------||

     Em
e||----------0----------|------------------|
B||o--------------------|--------0---------|
G||---------------------|-0----------------|
D||--2------------------|------------------|
A||o-2------------------|------------------|
E||--0------------------|------------------|
|
 |                  PM|                PM|
e||---------------------|------------------|
B||o--------------------|------------------|
G||---------------------|------------------|
D||---------------------|------------------|
A||o-2--2-2-----2-2-----|-2--2-2---2-2-----|
E||--0--0-0-----0-0-0-0-|-0--0-0---0-0-0-0-|

   Cmaj7/E
                                           8x
e|---------0----------|--------------------||
B|--------------------|--------0----------o||
G|--------------------|-0------------------||
D|-2------------------|--------------------||
A|-3------(3)---------|-------------------o||
E|-0------------------|--------------------||
|
 |                PM|                PM|
 |                                         8x
e|--------------------|--------------------||
B|--------------------|-------------------o||
G|--------------------|--------------------||
D|--------------------|--------------------||
A|-3--3-3-----3-3-----|-3--3-3---3-3------o||
E|-0--0-0-----0-0-0-0-|-0--0-0---0-0-0-0---||

     Em
e||---------------------|-------------------|
B||o--------------------|---------0---------|
G||----------0----------|-------------------|
D||--2------------------|--2----------------|
A||o-2------------------|-------------------|
E||--0------------------|-------------------|
|
 |                  PM|                 PM|
e||---------------------|-------------------|
B||o--------------------|-------------------|
G||---------------------|-------------------|
D||---------------------|-------------------|
A||o-2--2-2-----2-2-----|--2--2-2---2-2-----|
E||--0--0-0-----0-0-0-0-|--0--0-0---0-0-0-0-|
|
 |   TP                    TP
e||--7------------------|-12----------------|
B||o--------------------|-------------------|
G||---------------------|-------------------|
D||---------------------|-------------------|
A||o--------------------|-------------------|
E||---------------------|-------------------|

   Cmaj7/E
                                          4x
e|--------0---------|---------0-----------||
B|------------------|--------------------o||
G|------------------|---------------------||
D|-2----------------|--2------------------||
A|-3----------------|--------------------o||
E|-0----------------|---------------------||
 |
 |              PM|                 PM|
 |                                        4x
e|------------------|---------------------||
B|------------------|--------------------o||
G|------------------|---------------------||
D|------------------|---------------------||
A|-3--3-3---3-3-----|--3--3-3---3-3------o||
E|-0--0-0---0-0-0-0-|--0--0-0---0-0-0-0---||
 |
 | TP                  TP
 |                                        4x
e|-8----------------|-12------------------||
B|------------------|--------------------o||
G|------------------|---------------------||
D|------------------|---------------------||
A|------------------|--------------------o||
E|------------------|---------------------||

    Em                    E5
e|----------------------|---------------------|
B|o---------------------|----0----0---0---0---|
G|-----0----0---0---0---|---------------------|
D|--2-----2---2---2-----|-2-----2---2---2-----|
A|o---------------------|---------------------|
E|----------------------|---------------------|
 |
 |                   PM|                   PM|
e|----------------------|---------------------|
B|o---------------------|---------------------|
G|----------------------|---------------------|
D|----------------------|---------------------|
A|o-2-----2-2---2-2-----|-2-----2-2---2-2-----|
E|--0-----0-0---0-0-0-0-|-0-----0-0---0-0-0-0-|

  C/E
                                            4x
e|----0----0---0---0---|---0---0---0---0-----||
B|---------------------|--------------------o||
G|---------------------|---------------------||
D|-2-----2---2---2-----|-2---2---2---2-------||
A|---------------------|--------------------o||
E|---------------------|---------------------||
 |
 |                 PM|                 PM|
 |                                           4x
e|---------------------|---------------------||
B|---------------------|--------------------o||
G|---------------------|---------------------||
D|---------------------|---------------------||
A|-3-----3-3---3-3-----|-3---3-3---3-3------o||
E|-0-----0-0---0-0-0-0-|-0---0-0---0-0-0-0---||

    Em                    E5
e|----------------------|----------------------|
B|o---------------------|-----0----0---0---0---|
G|-----0----0---0---0---|----------------------|
D|--2-----2---2---2-----|--2-----2---2---2-----|
A|o---------------------|----------------------|
E|----------------------|----------------------|
 |
 |                   PM|                    PM|
e|----------------------|----------------------|
B|o---------------------|----------------------|
G|----------------------|----------------------|
D|----------------------|----------------------|
A|o-2-----2-2---2-2-----|--2-----2-2---2-2-----|
E|--0-----0-0---0-0-0-0-|--0-----0-0---0-0-0-0-|
 |
 |   TP                     TP
e|--7-------------------|-12-------------------|
B|o---------------------|            
Submit corrections

↑ Back to top | Tablatures and chords for acoustic guitar and electric guitar, ukulele, drums are parodies/interpretations of the original songs. You may use it for private study, scholarship, research or language learning purposes only