» » »

Underoath - Paper Lung Bass

Artists:  A B C D E F G H I J K L M N O P Q R S T U V W X Y Z # 

Paper Lung Bass

(ver. 1) Click to play this song!
Underoath
 Rating:
4/5 (4 votes)


 Paper Lung lessons Tabs too difficult? Try these video lessons and learn fast
 
                1st VERSE (0:17)
D:-9-9-9-9-9-9-9-9-9-9-9//-------------------------------|
A:-------------------------------------------------------|
E:-------------------------------------------------------|
B:-------------------------------------------------------|  x4

(0:47)
D:-9-9-9-9-9-9-9-9-9-9-9\\-------------------------------|
A:-------------------------------------------------------|
E:-------------------------------------------------------|
B:------------------------------2-4-----2-4--------------|

(0:54)
D:-9-9-9-9-9-9-9-9-9-9-9\\-------------------------------|
A--------------------------------------------------------|
E:-------------------------------------------------------|
D:------------------------------2-4-----2-4---4-2--------|

(1:01)
D:-9-9-9-9-9-9-9-9-9-9-9\\-------------------------------|
A:-------------------------------------------------------|
E:-------------------------------------------------------|
B:------------------------------2-4-4---2-4---4-2--2-4-2-|

(1:09)
D:-------------------------------------------------------|
A:-9-9-9-9-9-9-9-9-9-9-9\\-------------------------------|
E:-------------------------------------------------------|
B:------------------------------2-4-4---2-4/6-66---------|

CHORUS x2 (1:16 & 1:31)
D:--------------------------------------------------------|
A:--------------------------------------------------------|
E:--0---0-0-0-0-0-0-0-0-0---2-2-2-2-2-2-2-2-2-2-2-2-2-2-2-|
B:--------------------------------------------------------|

(1:24 & 1:39)
D:-------------------------------------------------------|
A:-------------------------------------------------------|
E:--7-7---7-7---7--7-7~---7-7---7-7---7--7-7-------------|
B:-------------------------------------------------------|

[No bass from 1:46-1:57]

2nd VERSE (1:57)
G:-------------------------------------------------------|
D:-------------------------------------------------------|
A:-------------------------------------------------------|
D:--4-2-------4\-----------------------------------------|

(2:01)
D:-9-9-9-9-9-9-9-9-9-9-9//-------------------------------|
A:-------------------------------------------------------|
E:-------------------------------------------------------|
B:-------------------------------------------------------|  x4

CHORUS x2 (2:30 & 2:45)
D:--------------------------------------------------------|
A:--------------------------------------------------------|
E:--0---0-0-0-0-0-0-0-0-0---2-2-2-2-2-2-2-2-2-2-2-2-2-2-2-|
B:--------------------------------------------------------|

(2:38 & 2:53)
D:-------------------------------------------------------|
A:-------------------------------------------------------|
E:--7-7---7-7---7--7-7~---7-7---7-7---7--7-7-------------|
B:-------------------------------------------------------|

BRIDGE (3:00)
D:-------------------------------------------------------|
A:-------------------------------------------------------|
E:--7-7---7-7---7--7-7~---7-7---7-7---7--7-7-------------|
B:-------------------------------------------------------| x2

[No bass from 3:07-3:14]

BREAKDOWN x2 (3:14 & 3:44)
D:-------------------------------------------------------|
A:-------------------------------------------------------|
E:--------------------------------2----------------------|
B:--0--0--0----------0--0--0----3------------------------|  x2



|---KEY---|
/ - Slide up
\ - Slide down
h - Hammer on
p - Pull off

First tab... I have no idea if this is cr*p or a decent attempt.
            
Submit corrections



        Paper Lung lessons Hard to play? Try these video lessons and learn fast Paper Lung lessons
        
↑ Back to top | Tablatures and chords for acoustic guitar and electric guitar, ukulele, drums are parodies/interpretations of the original songs. You may use it for private study, scholarship, research or language learning purposes only