» » »

Underoath - In Regards To Myself Bass

Artists:  A B C D E F G H I J K L M N O P Q R S T U V W X Y Z # 

In Regards To Myself Bass

(ver. 1) Click to play this song!
Underoath
 Rating:
4/5 (4 votes)


 In Regards To Myself lessons Tabs too difficult? Try these video lessons and learn fast
 
                Band   .:. Underoath
Song   .:. In Regards To Myself
Album  .:. Define the Great Line
Tuning .:. Drop D

Intro [0:14]

G|------------------------------------------|
D|------------------------------------------|x4
A|------------0-3---0-3---------------------|
D|--0-2-3-5-0-----------0-3---33-3--3-0-2---|


Verse [0:32]

G|-------------------------------------------|
D|-------------------------------------------|x2
A|-------------------------------------------|
D|--0-------0-----2^----0-------0-----2^-9\0-|

G|-------------------------------------------|
D|-------------------------------------------|x2
A|-------------------------------------------|
D|--0---0-0---0-0-2^----0---0-0-0-----2^-9\0-|

Interlude [0:57]

G|-----------------|
D|-----------------|
A|-----------------|
D|--1-----7-----0"-|


Chorus [0:59]

G|----------------------------------|
D|----------------------------------|
A|----------------------------------|
D|--1-1-1-1-1-1-1-1-1-1-1-1-1-1-1-1-|

G|----------------------------------|
D|----------------------------------|
A|----------------------------------|
D|--7-7-7-7-7-7-7-7-7-3-3-3-3-3-3-3-|

G|----------------------------------|
D|----------------------------------|
A|----------------------------------|
D|----1---1---1---1---1-1-1-1-1-1-1-|

G|----------------------------------|
D|----------------------------------|
A|----------------------------------|
D|--7-7-7-7-7-7-7-7-7-3-3-3-3-3-----|

G|----------------------------------|
D|----------------------------------|
A|----------------------------------|
D|--1-1-1-1-1-1-1-1-1-1-1-1-1-1-1-1-|

G|----------------------------------|
D|----------------------------------|
A|----------------------------------|
D|--7-7-7-7-7-7-7-7-7-3-3-3-3-3-3-3-|

G|----------------------------------|
D|----------------------------------|
A|----------------------------------|
D|----1---1---1---1---1-1-1-1-1-1-1-|

G|----------------------------------|
D|----------------------------------|
A|----------------------------------|
D|--7-7-7-7-7-7-7-7-7-3-3-3-3-------|


Verse 2 [1:24]

G|-----------------------------------|
D|-----------------------------------|
A|-----------------------------------|
D|--0-1/8---3---2/5\2-0----0-0-3-----|

G|-----------------------------------|
D|-----------------------------------|
A|-----------------------------------|
D|----3-2---0---2----0-------0-0-----|

G|-----------------------------------|
D|-----------------------------------|
A|-----------------------------------|
D|--0-1/8---3---2/5\2-0----0-0-3-----|

G|-----------------------------------|
D|-----------------------------------|
A|-----------------------------------|
D|----3-2---0---2----0-------0-12\0--|

G|-----------------------------------|
D|-----------------------------------|
A|-----------------------------------|
D|--0-1/8---3---2/5\2-0----0-0-3-----|

G|-----------------------------------|
D|-----------------------------------|
A|-----------------------------------|
D|----3-2---0---2----0-------0-0-----|

G|-----------------------------------|
D|-----------------------------------|
A|-----------------------------------|
D|--0-1/8---3---2/5\2-0----0-0-3-----|

G|-----------------------------------|
D|-----------------------------------|
A|-----------------------------------|
D|----3-2---0---2----0------0/10-----|


Interlude 2 [1:48]

G|----------------------------------|
D|----------------------------------|
A|----------------------------------|
D|--0-------------------------------|

G|----------------------------------|
D|----------------------------------|
A|----------------------------------|
D|--0-----------------12----0-0-0-0-|


Bridge [2:00]

G|----------------------------------|
D|----------------------------------|
A|--1-1-1-1-1-1-1-1-1-1-1-1-1-1-1-1-|
D|----------------------------------|

G|----------------------------------|
D|----------------------------------|
A|--1-1-1-1-1-1-1-1-1-1-0---0-0-0-0-|
D|----------------------------------|

G|----------------------------------|
D|----------------------------------|
A|--1-1-1-1-1-1-1-1-1-1-1-1-1-1-1-1-|
D|----------------------------------|

G|----------------------------------|
D|----------------------------------|
A|--1-1-1-1-1-1-1-1-1-1-0---0-0-0-0-|
D|----------------------------------|

G|----------------------------------|
D|----------------------------------|
A|--1-1-1-1-1-1-1-1-1-1-1-1-1-1-1-1-|
D|----------------------------------|

G|----------------------------------|
D|----------------------------------|
A|--1-1-1-1-1-1-1-1-1-1-12--0-0-0-0-|
D|----------------------------------|

G|----------------------------------|
D|----------------------------------|
A|--1-1-1-1-1-1-1-1-1-1-1-1-1-1-1-1-|
D|----------------------------------|

G|----------------------------------|
D|----------------------------------|
A|--1-1-1-1-1-1-1-1-1-1-0---0-0-0-0-|
D|----------------------------------|

G|----------------------------------|
D|----------------------------------|
A|--1-1-1-1-1-1-1-1-1-1-1-1-1-1-1-1-|
D|----------------------------------|


Interlude 3 [2:24]

G|----------------------------------|
D|----------------------------------|
A|-----------------12-12-12-12\0----|
D|----------------------------------|

Bridge 2 [2:27]

G|----------------|
D|----------------|x5
A|----------------|
D|----0------12\0-|

G|----------------|
D|----------------|
A|----------------|
D|----1/6-----6\0-|

G|----------------|
D|----------------|x3
A|----------------|
D|----0------12\0-|

G|----------------|
D|----------------|
A|----------------|
D|----1/6-----6\0-|


Ending [2:42

G|----------------|
D|----------------|x8
A|----------------| 
D|--1------7----0-| on the last, ring out 0
            
Submit corrections



        In Regards To Myself lessons Hard to play? Try these video lessons and learn fast In Regards To Myself lessons
        
↑ Back to top | Tablatures and chords for acoustic guitar and electric guitar, ukulele, drums are parodies/interpretations of the original songs. You may use it for private study, scholarship, research or language learning purposes only