» » »

Underoath - I Got Ten Friends And A Crowbar That Says You Aint Gonna Do Jack Bass

Artists:  A B C D E F G H I J K L M N O P Q R S T U V W X Y Z # 

I Got Ten Friends And A Crowbar That Says You Aint Gonna Do Jack Bass

(ver. 1) Click to play this song!
Underoath
 Rating:
4/5 (4 votes)


 I Got Ten Friends And A Crowbar That Says You Aint Gonna Do Jack lessons Tabs too difficult? Try these video lessons and learn fast
 
                -------------------------------------------------------------------------------
		     I GOT TEN FRIENDS - Under0ath
-------------------------------------------------------------------------------



Tuning: EADG

Intro 

The bass is silent until... 

(All the notes are right, but the amount of 
times you hit the notes aren't exact)

0.23 - 0.44
G|---------------------------------------------------------------------------|
D|--------------------------2-2-2-2-2-2-5-5-5-5-5-5--5-5-5-5-7-7-7-7---------|
A|-2-2-2-2-2-2-2-2-2-2-5-5-5-------------------------------------------------|
E|---------------------------------------------------------------------------|

G|------------------------------9-9-9-9-9-9-12-12-12-12-12-12----------------|
D|-9-9-9-9-9-9-9-9-9-9-12-12-12----------------------------------------------|
A|---------------------------------------------------------------------------|
E|---------------------------------------------------------------------------|

G|-12-12-12-12-14-14-14-14---------------------------------------------------|
D|---------------------------------------------------------------------------|
A|---------------------------------------------------------------------------|
E|---------------------------------------------------------------------------|

Verse

0.45 - 1.28
G|-19~---------16------------------------------------------------------------|
D|-----16~-19~----17-16-14~--------------------------------------------------|
A|---------------------------------------------------------------------------|
E|---------------------------------------------------------------------------|

Pre-Chorus

1.29 - 1.34
G|---------------------------------------------------------------------------|
D|-5-5-5-5-5-5-5-5--5-5--7-7-7-7-7-7-7-7--7-7--------------------------------|
A|---------------------------------------------------------------------------|
E|---------------------------------------------------------------------------|

Chorus

1.35 - 1.56
G|---------------------------------------------------------------------------|
D|---------------------------2-2-2-2-2-2-5-5-5-5-5-5--5-5-5-5-7-7-7-7--------|
A|-2-2-2-2-2-2-2-2-2-2-5-5-5-------------------------------------------------|
E|---------------------------------------------------------------------------|

G|------------------------------9-9-9-9-9-9-12-12-12-12-12-12----------------|
D|-9-9-9-9-9-9-9-9-9-9-12-12-12----------------------------------------------|
A|---------------------------------------------------------------------------|
E|---------------------------------------------------------------------------|

G|-12-12-12-12-14-14-14-14---------------------------------------------------|
D|---------------------------------------------------------------------------|
A|---------------------------------------------------------------------------|
E|---------------------------------------------------------------------------|

Post-Chorus

1.57 - 2.06
G|---------------------------------------------------------------------------|
D|---------------------------------------------------------------------------|
A|-2-2-2-2-2--2-2--2-2-2-2-2--2-2--2-2-2-2-2--2-2--2-2-2-2-2--2-2------------|
E|---------------------------------------------------------------------------|

2.07 - 2.12
G|---------------------------------------------------------------------------|
D|-------------------------2-2-2-2-2-2-2-2-5-5-5-5-7/2-----------------------|
A|-2-2-2-2-2-2-2-2-5-5-5-5-----------------------------2/7-------------------|
E|---------------------------------------------------------------------------|

2.13 - 2.23
G|---------------------------------------------------------------------------|
D|---------------------------------------------------------------------------|
A|-2-2-2-2-2--2-2--2-2-2-2-2--2-2--2-2-2-2-2--2-2--2-2-2-2-2--2-2------------|
E|---------------------------------------------------------------------------|

Breakdown

2.24 - 2.45
G|---------------------------------------------------------------------------|
D|---------------------------------------------------------------------------|
A|--------------5--5-7--4-5--------------------------------------------------|
E|-3~--3-5-7--7--------------------------------------------------------------|

2.46 - 3.27
G|---------------------------------------------------------------------------|
D|---------------------------------------------------------------------------|
A|-----------------7-7-7-5-5-5-4-4-----------------7-7-7-5-5-5-4-4-----------|
E|-3-3-3-3-3-3-3-3-----------------7-7-7-7-7-7-7-7---------------------------|


G|---------------------------------------------------------------------------|
D|---------------------------------------------------------------------------|
A|-----------------9-9-9-9-9-9-9-9-------------------------------------------|
E|-7-7-7-7-7-7-7-7-----------------------------------------------------------|

Chorus

3.32 - 3.54
G|---------------------------------------------------------------------------|
D|---------------------------2-2-2-2-2-2-5-5-5-5-5-5--5-5-5-5-7-7-7-7--------|
A|-2-2-2-2-2-2-2-2-2-2-5-5-5-------------------------------------------------|
E|---------------------------------------------------------------------------|

G|------------------------------9-9-9-9-9-9-12-12-12-12-12-12----------------|
D|-9-9-9-9-9-9-9-9-9-9-12-12-12----------------------------------------------|
A|---------------------------------------------------------------------------|
E|---------------------------------------------------------------------------|

G|-12-12-12-12-14-14-14-14---------------------------------------------------|
D|---------------------------------------------------------------------------|
A|---------------------------------------------------------------------------|
E|---------------------------------------------------------------------------|

3.55 - 4.15
G|---------------------------------------------------------------------------|
D|---------------------------2-2-2-2-2-2-------------------------------------|
A|-2-2-2-2-2-2-2-2-2-2-5-5-5-------------------------------------------------|
E|---------------------------------------3-3-3-3-3-3-3-3-3--3-3-3------------|

G|---------------------------------------------------------------------------|
D|---------------------------------------------------------------------------|
A|---------------------------------------------------------------------------|
E|-3-3-3-3-5-5-5-5-----------------------------------------------------------|

G|------------------------------9-9-9-9-9-9----------------------------------|
D|-9-9-9-9-9-9-9-9-9-9-12-12-12-------------5-5-5-5-5-5-5-5-5--5-5-5---------|
A|---------------------------------------------------------------------------|
E|---------------------------------------------------------------------------|

G|---------------------------------------------------------------------------|
D|-5-5-5-5--7-7-7-7----------------------------------------------------------|
A|---------------------------------------------------------------------------|
E|---------------------------------------------------------------------------|

Post-Chorus

4.16 - 4.32
G|---------------------------------------------------------------------------|
D|---------------------------------------------------------------------------|
A|-2-2--2-2-2--2-2--2-2--2-2-2----2-2--2-2-2--2-2--2-2--2-2-2--2-2-----------|
E|-----------------------------3~--------------------------------------------|

G|---------------------------------------------------------------------------|
D|---------------------------------------------------------------------------|
A|-2-2--2-2-2--2-2--2-2--2-2-2--2-2------------------------------------------|
E|---------------------------------------------------------------------------|

Outro

4.33 - 5.00
G|---------------------------------------------------------------------------|
D|-12~--------9-----------12~--------9---------------------------------------|
A|-----9~-12~---10-9-7--------9~-12~---10-9~~~~~~----------------------------|
E|---------------------------------------------------------------------------|




| /  slide up
| \  slide down
| h  hammer-on
| p  pull-off
| ~  vibrato
| +  harmonic
| x  Mute note
===============================================================================
            
Submit corrections



        I Got Ten Friends And A Crowbar That Says You Aint Gonna Do Jack lessons Hard to play? Try these video lessons and learn fast I Got Ten Friends And A Crowbar That Says You Aint Gonna Do Jack lessons
        
↑ Back to top | Tablatures and chords for acoustic guitar and electric guitar, ukulele, drums are parodies/interpretations of the original songs. You may use it for private study, scholarship, research or language learning purposes only