» » »

Underoath - Heart Of Stone Bass

Artists:  A B C D E F G H I J K L M N O P Q R S T U V W X Y Z # 

Heart Of Stone Bass

(ver. 1) Click to play this song!
Underoath
 Rating:
4/5 (4 votes)


 Heart Of Stone lessons Tabs too difficult? Try these video lessons and learn fast
 
                -------------------------------------------------------------------------------
			     Heart Of Stone - Underoath
-------------------------------------------------------------------------------


Tuning: Drop D
Intro x2
G|-------------------------------------------|
D|-------------------------------------------|
A|-------------------------------------------|
D|-5555-8888--4444-7777--33336666--22225555--|

G|------------------------------|
D|------------------------------|
A|------------------------------|
D|0-0-0-0--0--0--0-0-0-0--0--6--|x4

G|--------------------------------|
D|--------------------------------|
A|--------------------------------|
D|0-1-3-0-3-4-0-4-5-0-5-6-0-6-7---|x4


G|--------------------|
D|--------------------|
A|--------------------|
D|1-0-4-0-1-0-3-0-x12—|
        
G|----------------------------------------------------------|
D|----------------------------------------------------------|
A|----------------------------------------------------------|
D|55555-8888--7777-4444--3333-6666--5555-2222--1-0-4-0-1-0-3-0—|


G|------------------------------------------------------------------|
D|------------------------------------------------------------------|
A|------------------------------------------------------------------|
D|-5555-8888—-7777-4444—-3333-6666—-5555-2222--1-0-4-0-1-0-0-0-3-0--|

G|-----------------------------------------------------------------------|
D|-----------------------------------------------------------------------|
A|-----------------------------------------------------------------------|
D|-5555-8888--7777-4444--3333-6666--5555-2222---1-0-4-0-1-0-3-0----x2----|

G|---------------------------------------------------------------------------------|
D|---------------------------------------------------------------------------------|
A|-------1010101010---------99999---------77777-------555540-----------------------|
D|-99999-------------77777--------55555---------44444------------------------------|x2
1st time wait 2 measures

G|--------------------------------------------------------------------------------|
D|--------------------------------------------------------------------------------|
A|---------10-9-10-----------101010999777--------7-5-7-----------5554440----------|
D|-99999-------------77777-------------------55555----------44444-----------------|x2


G|-----------------------------------------------------------------------|
D|-----------------------------------------------------------------------|
A|------10~-------9~---------7~-------5-4-0------------------------------|
D|-9~--------7~---------5~---------4-------------------------------------|x4
G|--------------------------------------|
D|--------------------------------------|
A|--------------------------------------|
D|-2-0-0-2-0-0-2-0-0---7-10-6-9---------|x4

G|--------------------|
D|--------------------|
A|--------------------|
D|--2~-2~-------------|

G|-------------------------------------------------------------------------|
D|-------------------------------------------------------------------------|
A|-------------------------------------7----------------------------7-7-7-7|
D|-2-3-2-0-2-3-2-0-2-3-2-0-2-3-2-0-2-0---2-3-2-0-2-3-2-0-2-3-2-0-2-0-------| x4

G|-------------------------------------------|
D|-------------------------------------------|
A|-------------------------------------------|
D|-0~-|-------2—-3/-10~--0~--x13-end on 0~---|
Only Play The 1st 0 once


G|-------------------------------|
D|-------------------------------|
A|-------------------------------|
D|-3-2-1-0-8-0-3-2-1-0-9-0----------| x7


G|-------------------------------------------------------------------------|
D|-------------------------------------------------------------------------|
A|-------------------------------------------------------------------------|
D|-3333-2222-1111-0-8--3333-2222-1111-0-9-x2-- 3-2-1-0-8-0-3-2-1-0-9-0—x5--0-0-0-0-|

G|----------------------------------|
D|----------------------------------|
A|----------------------------------|
D|--1-00-4-3 ---------------------------------------| x4

G|------------------------------|
D|------------------------------|
A|------------------------------|
D|-0-1-4-3-------------------------------------|x4

G|-------------------------------------------------------------2----------|
D|------------------------------------------------------------------------|
A|------------------------------------------------------------------------|
D|---- 0-0-0-0-1-1-1-1-4-4-4-4-0-3-3-3-3-0-0-0-0-1-1-1-1-4-4-4-4-0-3-0--------------------| x4

G|-------------------2---------|
D|-----------------------------|  
A|-----------------------------|
D|-0-0-1-1-4-4-3-0-------------| x8




G|-----------|
D|-----------|
A|-----------|
D|-0~--------|

Wait 2 measures

G|--------------------------------------------------------------------|
D|--------------------------------------------------------------------|
A|--------------------------------------------------------------------|
D|--5555-8888--4444-7777--3333-6666--2222-5555-x2----end on 0-0-------| 

I learned this song from guitar tabs and by ear. This is my First Tab. Enjoy and Plz Rate
| /  slide up
| \  slide down
| h  hammer-on
| p  pull-off
| ~  vibrato
| +  harmonic
| x  Mute note
===============================================================================
            
Submit corrections



        Heart Of Stone lessons Hard to play? Try these video lessons and learn fast Heart Of Stone lessons
        
↑ Back to top | Tablatures and chords for acoustic guitar and electric guitar, ukulele, drums are parodies/interpretations of the original songs. You may use it for private study, scholarship, research or language learning purposes only