» » »

Underoath - Burden In Your Hands Tabs

Artists:  A B C D E F G H I J K L M N O P Q R S T U V W X Y Z # 

Burden In Your Hands Tabs

(ver. 1) Click to play this song!
Underoath
 Rating:
4.7/5 (14 votes)


 Burden In Your Hands lessons Tabs too difficult? Try these video lessons and learn fast
 
                this is my first tab so PLEASE RATE IT


E-------------------------------------------------|
B-------------------------------------------------|
G-------------------------------------------------|
D-------------------------------------------------|
A------------------------------666666666-44444444-|
D--4444444444444--0000000000000-------------------|

E------------------------------------------------------|
B------------------------------------------------------|
G------------------------------------------------------|
D-------------------------------0~-00-5--00-5----------|
A-------------------------------0~-00-5--00-5----------|
D--4444444444444--0000000000000-0~-00-5--00-5----------|   X5
                                   ..    ..
E--------------------------------------------------------------|
B--------------------------------------------------------------|
G--------------------------------------------------------------|
D--44444444--00000000---------44444444--00000000--00-5--00-5---|
A--44444444--00000000--6---4--44444444--00000000--00-5--00-5---|
D--44444444--00000000---------44444444--00000000--00-5--00-5---|  X4
   ........  ........         ........  ........  ..    ..

E----------------------------------------------------------------------------------------|
B----------------------------------------------------------------------------------------|
G----------------------------------------------------------------------------------------|
D----------------------------------------------------------------------------------------|
A--66666666-777777777-666666666-000000000------------------------------------------------|
D----------------------------------------66666666666-000000000000-444444444444-333333333-|

E-------------------------------------------------------------------------------------------|
B-------------------------------------------------------------------------------------------|
G-------------------------------------------------------------------------------------------|
D-------------------------------------------------------------------------------------------|
A--66666666-777777777-666666666-000000000-----------00000000000-99999999999-12121212121212--|
D----------------------------------------00000000000----------------------------------------|XALOT

E------------------------------------------------------|
B------------------------------------------------------|
G------------------------------------------------------|
D-----------------------------------------6-000000-----|
A--66666666-777777777-666666666-000000000-6-000000-----|
D-----------------------------------------6-000000-----|
                                            ...... E---|
B------------------------------------------------------|
G------------------------------------------------------|
D-----------------------------------------6-0000-------|
A--66666666-777777777-666666666-000000000-6-0000--12~--|
D-----------------------------------------6-0000-------| X4
                                            ....
^there are some changes there but they arent hard to figure out^

E-------------------------------------------|
B-------------------------------------------|
G-------------------------------------------|
D--4~~-0~~--4~~-0~~--00-4h5p4p0-00-4h5p4p0--|
A--4~~-0~~--4~~-0~~--00---------00----------|
D--4~~-0~~--4~~-0~~--00---------00----------| X2
                     ..         ..

E---------------------------------|
B---------------------------------|
G---------------------------------|
D--4-00-5-4-00------4-00-5-4-00---|
A--4-00-5-4-00-5-4--4-00-5-4-00-5-|
D--4-00-5-4-00------4-00-5-4-00---| X2
     ..     ..        ..     ..

E---------------------------------------------------|
B---------------------------------------------------|
G---------------------------------------------------|
D---------------------------------------------------|
A-------------------------------555555555-444444444-|
D--444444444-555555555-444444444--------------------|

E------------------------------------|
B------------------------------------|
G------------------------------------|
D------------------------------------|
A--------------------------------5b~-|
D--444444444-555555555-444444444-----|

E-----------------------------------------|
B-----------------------------------------|
G-----------------------------------------|
D--4444-5555-4444------4444-5555-4444-----|
A--4444-5555-4444-5-4--4444-5555-4444-5b~-|
D--4444-5555-4444------4444-5555-4444-----| X4
   .... .... ....      .... .... ....


E-------------4/--------------|
B-------------4/--------------|
G-----------------------------|
D--44-333-000---44-333-0-0000-|
A--44-333-000---44-333-0-0000-|
D--44-333-000---44-333-0-0000-| X6
                         ....

E---------------------------------------|
B---------------------------------------|
G---------------------------------------|
D--4~-----0~-00-4h5p4p0-4h5p4p0-4h5p4p0-|
A--4~-4-5-0~-00-------------------------|
D--4~-----0~-00-------------------------| X4
             ..

theres more but thats all i go so far

again this is my first tab so PLEASE RATE IT
            
Submit corrections



        Burden In Your Hands lessons Hard to play? Try these video lessons and learn fast Burden In Your Hands lessons
        
↑ Back to top | Tablatures and chords for acoustic guitar and electric guitar, ukulele, drums are parodies/interpretations of the original songs. You may use it for private study, scholarship, research or language learning purposes only