Home » U » Ultravox »

Ultravox - Sleepwalk Bass

Artists:  A B C D E F G H I J K L M N O P Q R S T U V W X Y Z # 

Sleepwalk Bass

(ver. 1) Click to play this song!
Ultravox
Intro: (Play 8 Times)

G|---------------------------------------------------------------------------------|
D|---------------------------------------------------------------------------------|
A|--5-5-5-5-5-5-5-5----------------------------------------------------------------|
E|---------------------------------------------------------------------------------|

Verse: (Play Twice)

G|---------------------------------------------------------------------------------|
D|---------------------------------------------------------------------------------|
A|--------------------8-8-8-8-8-8-8-8-(x3)---12-12-12-12-12-12-12-12---12--12-12-12|
E|--6-6-6-6-6-6-6-6----------------------------------------------------------------|

G|---------------------------------------------------------------------------------|
D|---------------------------------------------------------------------------------|
A|--12-12-12-12-(x1)---------------------------------------------------------------|
E|---------------------------------------------------------------------------------|

Repeat Intro:

Repeat Verse:

Repeat Intro:

Repeat Verse:

Synth Solo: (Play Twice)

G|---------------------------------------------------------------------------------|
D|---------------------------------------------------------------------------------|
A|--5-5-5-5-5-5-5-5-(x8)---------------------------------------5-5-5-5-5-5-5-5-----|
E|-------------------------5-5-5-5-5-5-5-5---5-5-5-5-5-5-5-5-----------------------|

G|---------------------------------------------------------------------------------|
D|---------------------------------------------------------------------------------|
A|--5-5-5-5-5-5-5-5---------------------------------------5-5-5-5-5-5-5-5----------|
E|--------------------5-5-5-5-5-5-5-5---5-5-5-5-5-5-5-5----------------------------|

G|---------------------------------------------------------------------------------|
D|---------------------------------------------------------------------------------|
A|--5-5-5-5-5-5-5-5-(x1)-----------------------------------------------------------|
E|---------------------------------------------------------------------------------|

Repeat Verse: (Play 2 Times)

Bridge:

G|---------------------------------------------------------------------------------|
D|---------------------------------------------------------------------------------|
A|--12-12-12-12---10-10-10-10---------------------------12-12--14-14--15-15--17-17-|
E|------------------------------9-9-9-9---10-10-10-10------------------------------|

G|---------------------------------------------------------------------------------|
D|---------------------------------------------------------------------------------|
A|--19-19-19-19-19-19--17--16---------------------------14-14-14-14-14-14--12--14--|
E|-----------------------------12-12-12-12-12-12-12-12-----------------------------|

G|---------------------------------------------------------------------------------|
D|---------------------------------------------------------------------------------|
A|--------------------------------------------------5-5-5-5-5-5-5-5----------------|
E|--13-13-13-13--12-12-12-12--10-10-10-10--8-8-8-8---------------------------------|

G|---------------------------------------------------------------------------------|
D|---------------------------------------------------------------------------------|
A|--5-5-5-5-5-5-5-5--0-0-0-0-0-0-0-0--0-0-0-0--------------------------------------|
E|---------------------------------------------------------------------------------|

Ending: (Play 23 Times) (Fades Out)

G|---------------------------------------------------------------------------------|
D|---------------------------------------------------------------------------------|
A|--5-5-5-5-5-5-5-5----------------------------------------------------------------|
E|---------------------------------------------------------------------------------|

            
Submit corrections

↑ Back to top | Tablatures and chords for acoustic guitar and electric guitar, ukulele, drums are parodies/interpretations of the original songs. You may use it for private study, scholarship, research or language learning purposes only