Home » U » Ultravox »

Ultravox - My Sex Bass

Artists:  A B C D E F G H I J K L M N O P Q R S T U V W X Y Z # 

My Sex Bass

(ver. 1) Click to play this song!
Ultravox
Bass Starts: 0:03

Intro:

G|---------------------------------------------------------------------------------|
D|---------------------------------------------------------------------------------|
A|----3-2----5-------55-7-8----8/10------7-8-7----10-------------------------------|
E|--3----------55-------------------8----------------88----------------------------|

Verse:

G|---------------------------------------------------------------------------------|
D|---------------------------------------------------------------------------------|
A|----------55--55------------33-33-(x2)-------------------------------------------|
E|--33--33----------1-1--1-1--------------8\---------------------------------------|

Instrumental: (Play Twice) 

G|---------------------------------------------------------------------------------|
D|---------------------------------------------------------------------------------|
A|----------55--55------------33-33------------------------------------------------|
E|--33--33----------1-1--1-1-------------------------------------------------------|

Verse: (Play Twice)

G|---------------------------------------------------------------------------------|
D|---------------------------------------------------------------------------------|
A|----------55--55------------33-33------------------------------------------------|
E|--33--33----------1-1--1-1-------------------------------------------------------|

Instrumental:

G|---------------------------------------------------------------------------------|
D|---------------------------------------------------------------------------------|
A|----------55--55------------33-33-(x1)--------------55--55------------33-33-(x1)-|
E|--33--33----------1-1--1-1--------------8\--33--33----------1-1--1-1-------------|

End:

G|---------------------------------------------------------------------------------|
D|---------------------------------------------------------------------------------|
A|----------55--33-5---------------------------------------------------------------|
E|--33--33-----------33------------------------------------------------------------|            
Submit corrections

↑ Back to top | Tablatures and chords for acoustic guitar and electric guitar, ukulele, drums are parodies/interpretations of the original songs. You may use it for private study, scholarship, research or language learning purposes only