Home » U » Ultravox »

Ultravox - A Friend I Call Desire Bass

Artists:  A B C D E F G H I J K L M N O P Q R S T U V W X Y Z # 

A Friend I Call Desire Bass

(ver. 1) Click to play this song!
Ultravox
First Bass Starts: 0:09

Intro:

G|-------------------------------------------7p-7p-7p-4p-(x1)----------------------|
D|---------------------------------------------------------------------------------|
A|------------5-5--5-5-(x3)-------------5-5----------------------------------------|
E|--0-0--3-3------------------0-0--3-3---------------------------------------------|

Second Bass: (Intro Only 0:22 - 0:34)

G|----9--9--9--9--9--9--9--9----7--7--7--7--7--7--7--7-----------------------------|
D|---------------------------------------------------------------------------------|
A|--7--7--7--7--7--7--7--7----5--5--5--5--5--5--5--5-------------------------------|
E|---------------------------------------------------------------------------------|

G|----9--9--9--9--9--9--9--9----7--7--7--7-----------------------------------------|
D|---------------------------------------------------------------------------------|
A|--7--7--7--7--7--7--7--7----5--5--5--5-------------------------------------------|
E|---------------------------------------------------------------------------------|

Verse:

G|---------------------------------------------------------------------------------|
D|--7-7-7-7-7-7-7--3-3-3-3-3-3-3-3--5-5-5-5-5-5-5-5--5-5-5-5-5-5-5-5-(x2)----------|
A|---------------------------------------------------------------------------------|
E|---------------------------------------------------------------------------------|

G|---------------------------------------------------------------------------------|
D|--2-2-2-2-2-2-2-2--5-5-5-5-5-5-5-5-----------------------------------------------|
A|------------------------------------5-5-5-5-5-5-5-5--5-5-5-5-5-5-5-5-(x2)--------|
E|---------------------------------------------------------------------------------|

G|---------------------------------------------------------------------------------|
D|--7-7-7-7-7-7-7--3-3-3-3-3-3-3-3--5-5-5-5-5-5-5-5--5-5-5-5-5-5-5-5-(x2)----------|
A|---------------------------------------------------------------------------------|
E|---------------------------------------------------------------------------------|

Chorus: (Play Twice)

G|---------------------------------------------------------------------------------|
D|--2-2-2-2-2-2-2-2--5-5-5-5-5-5-5-5-----------------------------------------------|
A|------------------------------------5-5-5-5-5-5-5-5--5-5-5-5-5-5-5-5-------------|
E|---------------------------------------------------------------------------------|

Repeat Verse:

Repeat Chorus:

Verse: (Play Twice)

G|---------------------------------------------------------------------------------|
D|--7-7-7-7-7-7-7--3-3-3-3-3-3-3-3--5-5-5-5-5-5-5-5--5-5-5-5-5-5-5-5---------------|
A|---------------------------------------------------------------------------------|
E|---------------------------------------------------------------------------------|

Bridge:

G|---------------------------------------------------------------------------------|
D|------------------------------------1-1-1-1-1-1-1-1--1-1-1-1-1-1-1-1-------------|
A|--3-3-3-3-3-3-3-3--3-3-3-3-3-3-3-3-----------------------------------------------|
E|---------------------------------------------------------------------------------|

G|---------------------------------------------------------------------------------|
D|---------------------------------------------------------------------------------|
A|--1-1-1-1-1-1-1-1--1-1-1-1-1-1-1-1-(x2)------------------------------------------|
E|---------------------------------------------------------------------------------|

G|---------------------------------------------------------------------------------|
D|------------------------------------1-1-1-1-1-1-1-1--1-1-1-1-1-1-1-1-------------|
A|--3-3-3-3-3-3-3-3--3-3-3-3-3-3-3-3-----------------------------------------------|
E|---------------------------------------------------------------------------------|

G|---------------------------------------------------------------------------------|
D|---------------------------------------------------------------------------------|
A|--1-1-1-1-1-1-1-1--1-1-1-1-1-1-1-1/-----5-(x1)-----------------------------------|
E|---------------------------------------------------------------------------------|

Chorus: 

G|---------------------------------------------------------------------------------|
D|--7-7-7-7-7-7-7--3-3-3-3-3-3-3-3--5-5-5-5-5-5-5-5--5-5-5-5-5-5-5-5---------------|
A|---------------------------------------------------------------------------------|
E|---------------------------------------------------------------------------------|

Solo: (Play Twice)

G|---------------------------------------------------------------------------------|
D|--2-2-2-2-2-2-2-2--5-5-5-5-5-5-5-5-----------------------------------------------|
A|------------------------------------5-5-5-5-5-5-5-5--5-5-5-5-5-5-5-5-------------|
E|---------------------------------------------------------------------------------|

Verse: (Play Twice)

G|---------------------------------------------------------------------------------|
D|--7-7-7-7-7-7-7--3-3-3-3-3-3-3-3--5-5-5-5-5-5-5-5--5-5-5-5-5-5-5-5---------------|
A|---------------------------------------------------------------------------------|
E|---------------------------------------------------------------------------------|

Bridge:

G|---------------------------------------------------------------------------------|
D|------------------------------------1-1-1-1-1-1-1-1--1-1-1-1-1-1-1-1-------------|
A|--3-3-3-3-3-3-3-3--3-3-3-3-3-3-3-3-----------------------------------------------|
E|---------------------------------------------------------------------------------|

G|---------------------------------------------------------------------------------|
D|---------------------------------------------------------------------------------|
A|--1-1-1-1-1-1-1-1--1-1-1-1-1-1-1-1/-----5----------------------------------------|
E|---------------------------------------------------------------------------------|

Chorus: (Play Twice) 

G|---------------------------------------------------------------------------------|
D|--7-7-7-7-7-7-7--3-3-3-3-3-3-3-3--5-5-5-5-5-5-5-5--5-5-5-5-5-5-5-5---------------|
A|---------------------------------------------------------------------------------|
E|---------------------------------------------------------------------------------|

Solo To Fade: (Play 5 Times)

G|---------------------------------------------------------------------------------|
D|------------------------------------1-1-1-1-1-1-1-1--1-1-1-1-1-1-1-1-------------|
A|--3-3-3-3-3-3-3-3--3-3-3-3-3-3-3-3-----------------------------------------------|
E|---------------------------------------------------------------------------------|

G|---------------------------------------------------------------------------------|
D|---------------------------------------------------------------------------------|
A|--1-1-1-1-1-1-1-1--1-1-1-1-1-1-1-1-----------------------------------------------|
E|---------------------------------------------------------------------------------|

End:

G|---------------------------------------------------------------------------------|
D|------------------------------------1-1-1-1-1-1----------------------------------|
A|--3-3-3-3-3-3-3-3--3-3-3-3-3-3-3-3-----------------------------------------------|
E|---------------------------------------------------------------------------------|            
Submit corrections

↑ Back to top | Tablatures and chords for acoustic guitar and electric guitar, ukulele, drums are parodies/interpretations of the original songs. You may use it for private study, scholarship, research or language learning purposes only