» » »

Ultima Thule - Vårvindar Friska Tabs

Artists:  A B C D E F G H I J K L M N O P Q R S T U V W X Y Z # 

Vårvindar Friska Tabs

(ver. 1) Click to play this song!
Ultima Thule
 Rating:
4/5 (4 votes)

 Vårvindar Friska lessons Tabs too difficult? Try these video lessons and learn fast
 
                Tuning:Standard

  Intro
e|------------------|
B|------------------|
G|-----2------------|
D|-----2------------|
A|-----0------------|
E|------------------|


  Verse
e|---------------------------------------------------------------------------|
B|---------------------------------------------------------------------------|
G|---2--5--9--2--------------------------------------------------------------|
D|---2--5--9--2--------------------------------------------------------------|
A|---0--3--7--0--------------------------------------------------------------|
E|---------------------------------------------------------------------------|


  Riff
e|---------------------------------------------------------------------------|
B|------------------------------5-5------------------------------------------|
G|-----------------5-5--7-5-7--------7-4-5-----------------------------------|
D|----7-7--9-7-9---------------------------7-7-5-----------------------------|
A|------------------------------------------------7--------------------------|
E|---------------------------------------------------------------------------|

e|---------------------------------------------------------------------------|
B|------------------------------5-5------------------------------------------|
G|-----------------5-5--7-5-7--------7-4-5-----------------------------------|
D|----7-7--9-7-9---------------------------7---------------------------------|
A|---------------------------------------------------------------------------|
E|---------------------------------------------------------------------------|

e|---------------------------------------------------------------------------|
B|----5-5---8-5--------------------------------------------------------------|
G|--------5-----7-7-5-4---5-5----9-5-4-4-------------------------------------|
D|-----------------------------7----------5----------------------------------|
A|------------------------------------------7--------------------------------|
E|---------------------------------------------------------------------------|

e|---------------------------------------------------------------------------|
B|------------------------------5-5------------------------------------------|
G|-----------------5-5--7-5-7--------7-4-5-----------------------------------|
D|----7-7--9-7-9---------------------------7---------------------------------|
A|---------------------------------------------------------------------------|
E|---------------------------------------------------------------------------|


  Chorus
e|---------------------------------------------------------------------------|
B|---------------------------------------------------------------------------|
G|---9------5--------2--5--9--2----------------------------------------------|
D|---9--5---5--2-----2--5--9--2----------------------------------------------|
A|---7--5---3--2-----0--3--7--0----------------------------------------------|
E|---0--3------0-------------------------------------------------------------|            
Submit corrections


        Vårvindar Friska lessons Hard to play? Try these video lessons and learn fast Vårvindar Friska lessons
        
↑ Back to top | Tablatures and chords for acoustic guitar and electric guitar, ukulele, drums are parodies/interpretations of the original songs. You may use it for private study, scholarship, research or language learning purposes only