» » »

Ugly Kid Joe - Bicycle Wheels Tabs

Artists:  A B C D E F G H I J K L M N O P Q R S T U V W X Y Z # 

Bicycle Wheels Tabs

(ver. 1) Click to play this song!
Ugly Kid Joe
 Rating:
4.3/5 (10 votes)

 Bicycle Wheels  lessons Tabs too difficult? Try these video lessons and learn fast
 
                [Intro]
e|-------------------------|----------------------|
B|---------6--7----6-------|--------6--7----6-----|
G|-------------------6-----|--------------------8-| 2x
D|-6-(6)---------6-----9-6-|-6-(6)--------6---6---|
A|-------------------------|----------------------|
E|-------------------------|----------------------|


[Verse 1]
e|-------------------------|----------------------|
B|---------6--7----6-------|--------6--7----6-----|
G|-------------------6-----|--------------------8-| 2x
D|-6-(6)---------6-----9-6-|-6-(6)--------6---6---|
A|-------------------------|----------------------|
E|-------------------------|----------------------|


[Chorus]
e|-----------------------|-----------------------|-----------------------|------|
B|-----------------------|-----------------------|-----------------------|------|
G|-----------------------|-------------------4-5-|-----------------------|------|
D|-6-6--6--6-6--6--6-4-5-|-6-6--6--6-6--6--6-----|-6-6--6--6-6--6--6-4-5-|-6/0--|
A|-----------------------|-----------------------|-----------------------|------|
E|-----------------------|-----------------------|-----------------------|------|


[Verse 2
e|-------------------------|----------------------|
B|---------6--7----6-------|--------6--7----6-----|
G|-------------------6-----|--------------------8-| 2x
D|-6-(6)---------6-----9-6-|-6-(6)--------6---6---|
A|-------------------------|----------------------|
E|-------------------------|----------------------|


[Chorus]
e|-----------------------|-----------------------|-----------------------|------|
B|-----------------------|-----------------------|-----------------------|------|
G|-----------------------|-------------------4-5-|-----------------------|------|
D|-6-6--6--6-6--6--6-4-5-|-6-6--6--6-6--6--6-----|-6-6--6--6-6--6--6-4-5-|-6/0--|
A|-----------------------|-----------------------|-----------------------|------|
E|-----------------------|-----------------------|-----------------------|------|


[Bridge - "throw your hands in the air..."]

e|----------|--|--|--|---|--|--|---------------------------------|
B|----------|--|--|--|---|--|--|-------------------7-------------|
G|----------|--|--|--|---|--|--|-----------------8---8---6-4-----|
D|--6-------|--|--|--|-6-|--|--|-----------------------6-----6-4-|
A|--6-------|--|--|--|-6-|--|--|---------------------------------|
E|--4-------|--|--|--|-4-|--|--|---------------------------------|


[Verse 2
e|-------------------------|----------------------|
B|---------6--7----6-------|--------6--7----6-----|
G|-------------------6-----|--------------------8-| 2x
D|-6-(6)---------6-----9-6-|-6-(6)--------6---6---|
A|-------------------------|----------------------|
E|-------------------------|----------------------|


[Chorus]
e|-----------------------|-----------------------|-----------------------|------|
B|-----------------------|-----------------------|-----------------------|------|
G|-----------------------|-------------------4-5-|-----------------------|------|
D|-6-6--6--6-6--6--6-4-5-|-6-6--6--6-6--6--6-----|-6-6--6--6-6--6--6-4-5-|-6/0--|
A|-----------------------|-----------------------|-----------------------|------|
E|-----------------------|-----------------------|-----------------------|------|            
Submit corrections


        Bicycle Wheels  lessons Hard to play? Try these video lessons and learn fast Bicycle Wheels  lessons
        
↑ Back to top | Tablatures and chords for acoustic guitar and electric guitar, ukulele, drums are parodies/interpretations of the original songs. You may use it for private study, scholarship, research or language learning purposes only