» » »

Ugly Casanova - Smoke Like Ribbons Chords

Artists:  A B C D E F G H I J K L M N O P Q R S T U V W X Y Z # 

Smoke Like Ribbons Chords

(ver. 1) Click to play this song!
Ugly Casanova
 Rating:
2.5/5 (22 votes)

 Smoke Like Ribbons  lessons Tabs too difficult? Try these video lessons and learn fast
 
                Intro/Chorus

The intro and chorus is played like a Dm while alternating between the bass notes
D and A. So be sure to strum the Dm chord and not just play it once because the 
tab below does not include the strumming pattern!

  Dm
e|-----1-----1-----1-----1-------1-----1-----1-----1-----|
B|-----3-----3-----3-----3-------3-----3-----3-----3-----|
G|-----2-----2-----2-----2----2--2-----2-----0-----2-----|  part A
D|--0-----------0-------------------3-----2--------------|
A|--------0-----------0-------------------------3--------|
E|-------------------------------------------------------|

e|-----1-----1-----1-----1-------1-----1-----1-----1-----|
B|-----3-----3-----3-----3-------3-----3-----3-----3-----|
G|-----2-----2-----2-----2----2--2-----2-----0--0--------|  part B
D|--0-----------0-------------------3-----2--------------|
A|--------0-----------0----------------------------------|
E|-------------------------------------------------------|

Verse:

F
Smoke was pulled in ribbons
         Bb
From the windows of the car
               F                         Bb
I followed the flash of silver from your teeth
          F                           Bb
Above the tarmac, the lights were icy-green
          F                        Bb
Buried in patterns in your chest a quiet shimmering
       F                      Bb                                Dm
Little dipper, tiara-shine, a song bird shivering, a thin, thin dime

Chorus: 

Dm                   (Play intro riffs along with line, part A 3 times then part B 1 time)
Smoke like ribbons   (x4)

F
Songs were pulled like ribbons
        Bb
From the window of the car
F                                   Bb
Lost along the shoulders of the highway
          F                            Bb
Cake walk dancers unwind from their spin
         F
Singing,   Lordy, Lordy loved him
         Bb                           F
           Stark don't give a flat f**k

           Lordy, Lordy loved him
         Bb                           F
           Stark don't give a flat f**k
           
           Lordy, Lordy loved him
         Bbmaj7                       Dm
           Stark don't give a flat f**k


Dm                   
Smoke like ribbons    (repeat with intro riff until you're done)
            
Submit corrections


        Smoke Like Ribbons  lessons Hard to play? Try these video lessons and learn fast Smoke Like Ribbons  lessons
        
↑ Back to top | Tablatures and chords for acoustic guitar and electric guitar, ukulele, drums are parodies/interpretations of the original songs. You may use it for private study, scholarship, research or language learning purposes only