» » »

Ufo - Dance Your Life Away Tabs

Artists:  A B C D E F G H I J K L M N O P Q R S T U V W X Y Z # 

Dance Your Life Away Tabs

(ver. 1) Click to play this song!
Ufo
 Rating:
4.3/5 (16 votes)

 Dance Your Life Away lessons Tabs too difficult? Try these video lessons and learn fast
 
                [Main riff]
e|-------------------------------|------------------------------|-------------------------------------|
B|-------------------------------|------------------------------|-------------------------------------|
G|-------------------------------|------------------------------|-------------------------------------|
D|-------------------------------|-------------------------2----|-------------------------------------|
A|------7------5----4p2--2-------|-----7/5----5-----4p2----0----|-7/5-----5-----4p2--2----------------|
E|--7h9---0--0----0---------3p0--|-7h9------0----0------3-----3-|-------0----0---------3p0------------|

e|----------------------------|
B|----------------------------|
G|----------------------------|
D|----------------------------|
A|------7------5-----4-2------|
E|--7h9---0--0----0------3p0--|

 [Verse]
e|------------------|    e|-----------|
B|------------------|    B|-----------|
G|------------------|    G|-----------|
D|---------------2--| x3 D|--------2--|
A|--7-7--5-5--5--2--|    A|--5--7--2--|
E|--5-5--3-3--3--0--|    E|--3--5--0--|

 [Bridge]
e|------------------------------------------|--------------------------------|
B|------------------------------------------|----------------------------10--|
G|-----------------------------10-10-10-10--|----------------------------10--|
D|-----------6-6-6-6--7-7-7-7--10-10-10-10--|----------6-6-6-6--7-7-7-7--10--| x2 palm muting
A|--7-7-7-7--4-4-4-4--5-5-5-5--8--8--8--8---|-7-7-7-7--4-4-4-4--5-5-5-5--8---|
E|--5-5-5-5---------------------------------|-5-5-5-5------------------------|

e|-------------------------------------------------------|
B|------------------3------------------------------------|
G|--------2--------------------2-------------------------|
D|------------0-2-3----------------3-2-0---2-0-----------|
A|--0-2-3---------------0-2-3------------3-----3-2-------|
E|-------------------------------------------------------|

[Solo rhythm] 
F-A-G-A-G-A-G-A-G-A-B

 [Solo]
e|----------------------------------------------------------------------------------------------17--
B|----------------------------17--------------17--------------------17-17-------17-17--------17-----
G|--16b17b16--16b17b16--14-------16b17b16-14-----16b17b16-14--16/18-------16/18--------16/18--------
D|--------------------------------------------------------------------------------------------------
A|--------------------------------------------------------------------------------------------------
E|--------------------------------------------------------------------------------------------------

e|-------------------------------------17-----------------17--------------------------------------------
B|--20b22--20b22--20b22--20b22--20b22-----20-17--------17----20p17--------------------------------------
G|-----------------------------------------------19b20--------------19b20b19--17h19--17-----------------
D|--------------------------------------------------------------------------------------19-17-----------
A|--------------------------------------------------------------------------------------------19-18-17--
E|------------------------------------------------------------------------------------------------------

e|--------------------------------------------------5-------5----------------------------5------------5-----
B|------------------------------------------------5----8b10---8------------------------5---8p5------5----8p5
G|----------------------------------7------5--7b8-----------------7b8b7p5----5-----7b9----------7b9---------
D|--------------------------------7---7h9----------------------------------7----7---------------------------
A|--15-17b18b17--------3-3h5--5h7---------------------------------------------------------------------------
E|-----------------3h5--------------------------------------------------------------------------------------

e|--------5--8h5---5--------------------------------------------------------------------------------------
B|------5--------8---8-5-8-5---5--------------------------------5----5----5-----7p5--------17-17-----17-17
G|--7b9----------------------7---7-5-7-5---5-------5-7-7b9------5----5----5-----7p5--------17-17-----17-17
D|---------------------------------------7---7-5-7------------7----7----7----7------7---19--------19------
A|--------------------------------------------------------------------------------------------------------
E|--------------------------------------------------------------------------------------------------------

e|-----------17------------17-----20b22-20b22-20b22--20p17----17------------------------------------------
B|--------17----20-20b22-------17--------------------------17----20-17--20-17-----17----------------------
G|--19b20----------------------------------------------------------------------19----19-17-19-17----------
D|------------------------------------------------------------------------------------------------19-18-17
A|--------------------------------------------------------------------------------------------------------
E|--------------------------------------------------------------------------------------------------------

e|-------------------------------------------------------------------------5-------------10--12-11-10----10---
B|----------------------------------------------------------------------------------------------------13----10
G|-------------------------------------------------------------5-----5h6b7------/11b12------------------------
D|--------------------------------------------------------5------7--------------------------------------------
A|--19-18-17--15h17--15h17--15h17---------3h4----3-4-5/7----7-------------------------------------------------
E|-------------------------------------5-------5--------------------------------------------------------------

e|---------5-----------------------------------------------|
B|------5-----8--5-----------------------------------------|
G|--7b8-------------7b8b7-5-7----5-7-5---------------------|
D|---------------------------------------7-5-7-------------|
A|-----------------------------------------------7/9-9-----|
E|---------------------------------------------------------|            
Submit corrections


        Dance Your Life Away lessons Hard to play? Try these video lessons and learn fast Dance Your Life Away lessons
        
↑ Back to top | Tablatures and chords for acoustic guitar and electric guitar, ukulele, drums are parodies/interpretations of the original songs. You may use it for private study, scholarship, research or language learning purposes only