» » »

U2 - Youre The Best Thing About Me Tabs

Artists:  A B C D E F G H I J K L M N O P Q R S T U V W X Y Z # 

Youre The Best Thing About Me Tabs

(ver. 1) Click to play this song!
U2
 Rating:
4.3/5 (21 vote)

 Youre The Best Thing About Me lessons Tabs too difficult? Try these video lessons and learn fast
 
                [Verse 1]
e|--2-2--2--------------|-2-2--2--2-2-2---2-2------------------|
B|--2-2--2--5-5--9--9-9-|-2-2--2--2-2-2---2-2------------------|
G|--3-3--3--6-6--9--9-9-|-3-3--3--3-3-3-4-3-3------------------| x5
D|--4-4--4--6-6--9--9-9-|-4-4--4--4-4-4-4-4-4------------------|
A|--4-4--4--4-4--7--7-7-|-4-4--4--4-4-4-4-4-4------------------|
E|--2-2--2--------------|-2-2--2--2-2-2-2-2-2------------------|

e|--2-2--2--------------|----------2-2-2---2-2-----------------|
B|--2-2--2--5-5--9--9-9-|----------2-2-2---2-2-----------------|
G|--3-3--3--6-6--9--9-9-|-4--4--4--3-3-3-4-3-3-----------------|
D|--4-4--4--6-6--9--9-9-|-4--4--4--4-4-4-4-4-4-----------------|
A|--4-4--4--4-4--7--7-7-|-4--4--4--4-4-4-4-4-4-----------------|
E|--2-2--2--------------|-2--2--2--2-2-2-2-2-2-----------------|

[Chorus 1]
e|------------------|-----------------|-----------------|--------------------------|
B|------------------|-----------------|-----------------|--------------------------|
G|------------------|-----------------|-----------------|--------------------------| x2
D|------------------|-----------------|-----------------|--------------------------|
A|--5-5-5-5-5-5-5-5-|-5-5-5-5-5-5-5-5-|-7-7-7-7-7-7-7-7-|-9-9-9-9-9-9-9-9----------|
E|--3-3-3-3-3-3-3-3-|-2-2-2-2-2-2-2-2-|-5-5-5-5-5-5-5-5-|-7-7-7-7-5-5-5-5----------|

e|-----10----10----10----|----10----10----10----|----9----9----9----|10----10----9-----------|
B|--12----12----12----12-|-10----10----10----10-|-10---10---10---10-|---10----10---10-12-10--|
G|-----------------------|----------------------|-------------------|------------------------|
D|-----------------------|----------------------|-------------------|------------------------|
A|-----------------------|----------------------|-------------------|------------------------|
E|-----------------------|----------------------|-------------------|------------------------|

e|-----10----10----10----|----10----10----10----|----9----9----9--------------|
B|--12----12----12----12-|-10----10----10----10-|-10---10---10---10-----------|
G|-----------------------|----------------------|-----------------------------|
D|-----------------------|----------------------|-----------------------------|
A|-----------------------|----------------------|-----------------------------|
E|-----------------------|----------------------|-----------------------------|

[Verse 2]
e|--2-2--2--------------|-2-2--2--2-2-2---2-2------------------|
B|--2-2--2--5-5--9--9-9-|-2-2--2--2-2-2---2-2------------------|
G|--3-3--3--6-6--9--9-9-|-3-3--3--3-3-3-4-3-3------------------| x4
D|--4-4--4--6-6--9--9-9-|-4-4--4--4-4-4-4-4-4------------------|
A|--4-4--4--4-4--7--7-7-|-4-4--4--4-4-4-4-4-4------------------|
E|--2-2--2--------------|-2-2--2--2-2-2-2-2-2------------------|

e|--2-2--2--------------|----------2-2-2---2-2-----------------|
B|--2-2--2--5-5--9--9-9-|----------2-2-2---2-2-----------------|
G|--3-3--3--6-6--9--9-9-|-4--4--4--3-3-3-4-3-3-----------------|
D|--4-4--4--6-6--9--9-9-|-4--4--4--4-4-4-4-4-4-----------------|
A|--4-4--4--4-4--7--7-7-|-4--4--4--4-4-4-4-4-4-----------------|
E|--2-2--2--------------|-2--2--2--2-2-2-2-2-2-----------------|

[Chorus 2]
e|------------------|-----------------|-----------------|--------------------------|
B|------------------|-----------------|-----------------|--------------------------|
G|------------------|-----------------|-----------------|--------------------------| x2
D|------------------|-----------------|-----------------|--------------------------|
A|--5-5-5-5-5-5-5-5-|-5-5-5-5-5-5-5-5-|-7-7-7-7-7-7-7-7-|-9-9-9-9-9-9-9-9----------|
E|--3-3-3-3-3-3-3-3-|-2-2-2-2-2-2-2-2-|-5-5-5-5-5-5-5-5-|-7-7-7-7-5-5-5-5----------|

e|-----10----10----10----|----10----10----10----|----9----9----9----|10----10----9-----------|
B|--12----12----12----12-|-10----10----10----10-|-10---10---10---10-|---10----10---10-12-10--|
G|-----------------------|----------------------|-------------------|------------------------| x2
D|-----------------------|----------------------|-------------------|------------------------|
A|-----------------------|----------------------|-------------------|------------------------|
E|-----------------------|----------------------|-------------------|------------------------|

e|------10-----10----10-|-----10-----10----10-|----9-----9----9-|-------------|
B|--12-----12-----12----|-12-----12-----12----|-12----12----12--|-11----------|
G|----------------------|---------------------|-----------------|-------------|
D|----------------------|---------------------|-----------------|-------------|
A|----------------------|---------------------|-----------------|-------------|
E|----------------------|---------------------|-----------------|-------------|

[Solo]
e|--------------------|-------------------|-------------------|-----------------|
B|--------------------|-------------------|-------------------|-----------------|
G|--------------------|-------------------|-------------------|-----------------|
D|--5--4--5--4-5------|--4--2--4--2-4-----|--7--4--7--4-7-----|--9--7--5--4-----|
A|--------------------|-------------------|-------------------|-----------------|
E|--------------------|-------------------|-------------------|-----------------|

e|-------------------|-----------------|-------------------|-------------------------------------------------|
B|-------------------|-----------------|-------------------|-12-12-12-12-12-12-12-12-12-12-12-12-12-12-12-12-|
G|-12--11--12--11-12-|-11--9--11--9-11-|-14--11--14--11-14-|-------------------------------------------------|
D|-------------------|-----------------|-------------------|-9--9--9--9--9--9--9--9--9--9--9--9--9--9--9--9--|
A|-10--9---10--9--10-|-9---7--9---7-9--|-12--9---12--9--12-|-------------------------------------------------|
E|-------------------|-----------------|-------------------|-------------------------------------------------|

[Chorus 3]
e|----2-----2---|-----2---2---|-----0-----0---|-----2-3--2----------------|
B|--3-----3-----|---3---3-----|---2-----2-----|---3--------3--------------|
G|--------------|-------------|---------------|---------------------------| x2
D|--------------|-------------|---------------|---------------------------|
A|--------------|-------------|---------------|---------------------------|
E|--------------|-------------|---------------|---------------------------|

e|-----10----10----10----|----10----10----10----|----9----9----9----|10----10----9-----------|
B|--12----12----12----12-|-10----10----10----10-|-10---10---10---10-|---10----10---10-12-10--|
G|-----------------------|----------------------|-------------------|------------------------| x2
D|-----------------------|----------------------|-------------------|------------------------|
A|-----------------------|----------------------|-------------------|------------------------|
E|-----------------------|----------------------|-------------------|------------------------|

e|------10-----10----10-|-----10-----10----10-|----9-----9----9-|-------------|
B|--12-----12-----12----|-12-----12-----12----|-12----12----12--|-11----------|
G|----------------------|---------------------|-----------------|-------------|
D|----------------------|---------------------|-----------------|-------------|
A|----------------------|---------------------|-----------------|-------------|
E|----------------------|---------------------|-----------------|-------------|            
Submit corrections


        Youre The Best Thing About Me lessons Hard to play? Try these video lessons and learn fast Youre The Best Thing About Me lessons
        
↑ Back to top | Tablatures and chords for acoustic guitar and electric guitar, ukulele, drums are parodies/interpretations of the original songs. You may use it for private study, scholarship, research or language learning purposes only