Home » U » U2 »

U2 - Van Diemens Land Bass

Artists:  A B C D E F G H I J K L M N O P Q R S T U V W X Y Z # 

Van Diemens Land Bass

(ver. 1) Click to play this song!
U2
"Hold me now, oh hold me now

G----------------------------------|
D----------------------------------|
A------------3---------------3-----|
E-------3---------------3--------3-|

Till this hour has gone around

G-----------------------------------|
D-----------------------------------|
A--10-9-7-------3------------5------|
E-----------------------------------|

And I'm gone on the rising tide

G-----------------------------------------|
D-----------------------------------------|
A-------9-------------------------7---3---|
E-----------------------------------------|

For to face Van Diemen's Land

G------------------------------------|
D------------------------------------|
A----------5--------------------3----|
E-------3--------------------3---3---|
"            
Submit corrections

↑ Back to top | Tablatures and chords for acoustic guitar and electric guitar, ukulele, drums are parodies/interpretations of the original songs. You may use it for private study, scholarship, research or language learning purposes only