Home » U » U2 »

U2 - Surrender Bass

Artists:  A B C D E F G H I J K L M N O P Q R S T U V W X Y Z # 

Surrender Bass

(ver. 1) Click to play this song!
U2
 U2 - Surrender


Verse
      H     Harm
G|---------------|
D|---------------|
A|-7--77---77777-|
E|---------------|

Play this before chorus
G|-----------9--|
D|--------------|
A|-7--77---7--7-|
E|--------------|

Chorus            x2
G|------------------|
D|------------------|
A|5-532323-5-502323-|
E|------------------|

           x2
|--9----99----|
|*-----------*|
|*-7----7----*|
|-------------|

Play chorus
           x2
|--9-----12-|
|-----------|
|7--07/10---|
|-----------|
         _________  _________
         1        \ 2        \
|-9--------9------ |--9-11-----|
|-----9------11-12 |-----------|
|7-07--7-7-------- |7--------7-|
|----------------- |-----------|

Play second verse

Play chorus

x2
|--9-----12-|
|-----------|
|7--07/10---|
|-----------|

x2
|--9-----12-|
|-----------|
|77-07/10---|
|-----------|

Play chorus

Interlude x6
|--------|------|
|9--99--9|9---\-|
|7--77--7|7---\-|
|--------|------|

Play third verse
                 x4              x5
|--------|--------|--------|---------|
|--------|--9---7-|--------|---------|
|7-777777|77--55-5|7-707-77|7-777770-|
|--------|--------|--------|---------|

Play chorus

           X4
|--9-----12-|
|-----------|
|7--07/10---|
|-----------|

Play chorus X12
|--9-----12-|
|-----------|
|7--07/10---| repeat and fade
|-----------|
            
Submit corrections

↑ Back to top | Tablatures and chords for acoustic guitar and electric guitar, ukulele, drums are parodies/interpretations of the original songs. You may use it for private study, scholarship, research or language learning purposes only