» » »

U2 - Rejoice Bass

Artists:  A B C D E F G H I J K L M N O P Q R S T U V W X Y Z # 

Rejoice Bass

(ver. 2) Click to play this song!
U2
 Rating:
4/5 (4 votes)


 Rejoice lessons Tabs too difficult? Try these video lessons and learn fast
 
                U2 - Rejoice, Off The Album, October


Standard Tuning E,A,D,G 

Intro - After guitar

G|-----------------|-----------------|-----------------|-----------------|
D|*-/-7-7-7-7-7-\\-|--/-7-7-7-7-7-\\-|-----------------|----------------*|
A|*----------------|-----------------|-5-5-5-5-5-5-5-5-|-5-5-5-5-5-5-5-5*|
E|-----------------|-----------------|-----------------|-----------------|

G|-----------------|-----------------|-----------------|-----------------|
D|*-/-7-7-7-7-7-\\-|--/-7-7-7-7-7-\\-|-----------------|----------------*|
A|*----------------|-----------------|-5-5-5-5-5-5-5-5-|-5-5-5-5-5-5-5-5*|
E|-----------------|-----------------|-----------------|-----------------|



G|-----------------|-----------------|-----------------|-----------------|
D|*7-7-7-7-7-7-7-7-|-7-7-7-7-5-5-5-5-|-----------------|----------------*|
A|*----------------|-----------------|-5-5-5-5-5-5-5-5-|-5-5-5-5-3-3-3-3*|
E|-----------------|-----------------|-----------------|-----------------|

G|-----------------|-----------------|-----------------|-----------------|
D|*7-7-7-7-7-7-7-7-|-7-7-7-7-5-5-5-5-|-----------------|----------------*|
A|*----------------|-----------------|-5-5-5-5-5-5-5-5-|-5-5-5-5-3-3-3-3*|
E|-----------------|-----------------|-----------------|-----------------|

G|-----------------|-----------------|-----------------|-----------------|
D|*7-7-7-7-7-7-7-7-|-7-7-7-7-5-5-5-5-|-----------------|----------------*|
A|*----------------|-----------------|-5-5-5-5-5-5-5-5-|-5-5-5-5-3-3-3-3*|
E|-----------------|-----------------|-----------------|-----------------|

G|-----------------|-----------------|-----------------|-----------------|
D|*7-7-7-7-7-7-7-7-|-7-7-7-7-5-5-5-5-|-----------------|----------------*|
A|*----------------|-----------------|-5-5-5-5-5-5-5-5-|-5-5-5-5-3-3-3-3*|
E|-----------------|-----------------|-----------------|-----------------|

Break

G|-----------------|-----------------|-----------------|-----------------|
D|*-\\7------------|-----------------|-----------------|----------------*|
A|*----------------|-----------------|-----------------|----------------*|
E|-----------------|-----------------|-----------------|-----------------|

Part 2

G|-----------------|-----------------|-----------------|-----------------|
D|*7-7-7-7-7-7-7-7-|-7-7-7-7-5-5-5-5-|-----------------|----------------*|
A|*----------------|-----------------|-5-5-5-5-5-5-5-5-|-5-5-5-5-3-3-3-3*|
E|-----------------|-----------------|-----------------|-----------------|

G|-----------------|-----------------|-----------------|-----------------|
D|*7-7-7-7-7-7-7-7-|-7-7-7-7-5-5-5-5-|-----------------|----------------*|
A|*----------------|-----------------|-5-5-5-5-5-5-5-5-|-5-5-5-5-3-3-3-3*|
E|-----------------|-----------------|-----------------|-----------------|

G|-----------------|-----------------|-----------------|-----------------|
D|*7-7-7-7-7-7-7-7-|-7-7-7-7-5-5-5-5-|-----------------|----------------*|
A|*----------------|-----------------|-5-5-5-5-5-5-5-5-|-5-5-5-5-3-3-3-3*|
E|-----------------|-----------------|-----------------|-----------------|

G|-----------------|-----------------|-----------------|-----------------|
D|*7-7-7-7-7-7-7-7-|-7-7-7-7-5-5-5-5-|-----------------|----------------*|
A|*----------------|-----------------|-5-5-5-5-5-5-5-5-|-5-5-5-5-3-3-3-3*|
E|-----------------|-----------------|-----------------|-----------------|

G|-----------------|-----------------|-----------------|-----------------|
D|*7-7-7-7-7-7-7-7-|-7-7-7-7-5-5-5-5-|-----------------|----------------*|
A|*----------------|-----------------|-5-5-5-5-5-5-5-5-|-5-5-5-5-3-3-3-3*|
E|-----------------|-----------------|-----------------|-----------------|

Break

G|-----------------|-----------------|-----------------|-----------------|
D|*-\\7------------|-----------------|-----------------|----------------*|
A|*----------------|-----------------|-----------------|----------------*|
E|-----------------|-----------------|-----------------|-----------------|


|-----------------|-----------------|-----------------|-----------------|
|*-/-7-7-7-7-7-\\-|--/-7-7-7-7-7-\\-|-----------------|----------------*|
|*----------------|-----------------|-5-5-5-5-5-5-5-5-|-5-5-5-5-5-5-5-5*|
|-----------------|-----------------|-----------------|-----------------|

|-----------------|-----------------|-----------------|-----------------|
|*-/-7-7-7-7-7-\\-|--/-7-7-7-7-7-\\-|-----------------|----------------*|
|*----------------|-----------------|-5-5-5-5-5-5-5-5-|-5-5-5-5-5-5-5-5*|
|-----------------|-----------------|-----------------|-----------------|

|-----------------|-----------------|-----------------|-----------------|
|*7-7-7-7-7-7-7-7-|-7-7-7-7-5-5-5-5-|-----------------|----------------*|
|*----------------|-----------------|-5-5-5-5-5-5-5-5-|-5-5-5-5-3-3-3-3*|
|-----------------|-----------------|-----------------|-----------------|

|-----------------|-----------------|-----------------|-----------------|
|*7-7-7-7-7-7-7-7-|-7-7-7-7-5-5-5-5-|-----------------|----------------*|
|*----------------|-----------------|-5-5-5-5-5-5-5-5-|-5-5-5-5-3-3-3-3*|
|-----------------|-----------------|-----------------|-----------------|

Break

|-----------------|-----------------|-----------------|-----------------|
|*-\\7------------|-----------------|-----------------|----------------*|
|*----------------|-----------------|-----------------|----------------*|
|-----------------|-----------------|-----------------|-----------------|

Interlude

|-----------------|-----------------|-----------------|-----------------|
|*----------------|-3---------------|-2---------------|-5--------------*|
|*5---------------|-----------------|-----------------|----------------*|
|-----------------|-----------------|-----------------|-----------------|

|-----------------|-----------------|-----------------|-----------------|
|*----------------|-3---------------|-2---------------|-5--------------*|
|*5---------------|-----------------|-----------------|----------------*|
|-----------------|-----------------|-----------------|-----------------|

|-----------------|-----------------|-----------------|-----------------|
|*----------------|-3---------------|-2---------------|-5--------------*|
|*5---------------|-----------------|-----------------|----------------*|
|-----------------|-----------------|-----------------|-----------------|

|-----------------|-----------------|-----------------|-----------------|
|*----------------|-3---------------|-2---------------|-5--------------*|
|*5---------------|-----------------|-----------------|----------------*|
|-----------------|-----------------|-----------------|-----------------|

|-----------------|-----------------|-----------------|-----------------|
|*----------------|-3---------------|-2---------------|-5--------------*|
|*5---------------|-----------------|-----------------|----------------*|
|-----------------|-----------------|-----------------|-----------------|

|-----------------|-----------------|-----------------|-----------------|
|*----------------|-3---------------|-2---------------|-5--------------*|
|*5---------------|-----------------|-----------------|----------------*|
|-----------------|-----------------|-----------------|-----------------|

|-----------------|-----------------|-----------------|-----------------|
|*----------------|-----------------|-----------------|----------------*|
|*5---------------|-----------------|-----------------|----------------*|
|-----------------|-----------------|-----------------|-----------------|

Outro

|-----------------|-----------------|-----------------|-----------------|
|*-/-7-7-7-7-7-\\-|--/-7-7-7-7-7-\\-|-----------------|----------------*|
|*----------------|-----------------|-5-5-5-5-5-5-5---|-3--3-2--2------*|
|-----------------|-----------------|-----------------|------------3----|

|-----------------|-----------------|-----------------|-----------------|
|*-/-7-7-7-7-7-\\-|--/-7-7-7-7-7-\\-|-----------------|----------------*|
|*----------------|-----------------|-5-5-5-5-5-5-5---|-3--3-2--2------*|
|-----------------|-----------------|-----------------|------------3----|

|-----------------|-----------------|-----------------|-----------------|
|*-/-7-7-7-7-7-\\-|--/-7-7-7-7-7-\\-|-----------------|----------------*|
|*----------------|-----------------|-5-5-5-5-5-5-5---|-3--3-2--2------*|
|-----------------|-----------------|-----------------|------------3----|

|-----------------|-----------------|-----------------|-----------------|
|*-/-7-7-7-7-7-\\-|--/-7-7-7-7-7-\\-|-----------------|----------------*|
|*----------------|-----------------|-5-5-5-5-5-5-5---|-3--3-2--2------*|
|-----------------|-----------------|-----------------|------------3----|

|-----------------|-----------------|-----------------|-----------------|
|*-/-7-7-7-7-7-\\-|--/-7-7-7-7-7-\\-|-----------------|----------------*|
|*----------------|-----------------|-5-5-5-5-5-5-5---|-3--3-2--2------*|
|-----------------|-----------------|-----------------|------------3----|

|-----------------|-----------------|-----------------|-----------------|
|*-/-7-7-7-7-7-\\-|--/-7-7-7-7-7-\\-|-----------------|----------------*|
|*----------------|-----------------|-5-5-5-5-5-5-5---|-3--3-2--2------*|
|-----------------|-----------------|-----------------|------------3----|

|-----------------|-----------------|-----------------|----------------|
|*-/-7-7-7-7-7-\\-|--/-7-7-7-7-7-\\-|-----------------|---------------*|
|*----------------|-----------------|-5-5-5-5-5-5-5---|-3--3-2--2-----*|
|-----------------|-----------------|-----------------|------------3---|

|-----------------|-----------------|-----------------|---------------|
|*-/-7-7-7-7-7-\\-|--/-7-7-7-7-7-\\-|-----------------|--------------*|
|*----------------|-----------------|-5-5-5-5-5-5-5---|-3--3-2--2----*|
|-----------------|-----------------|-----------------|------------3--|

Ending

|-----------------|
|*----------------|
|*----------------|
|-5--5~-----------|
            
Submit corrections



        Rejoice lessons Hard to play? Try these video lessons and learn fast Rejoice lessons
        
↑ Back to top | Tablatures and chords for acoustic guitar and electric guitar, ukulele, drums are parodies/interpretations of the original songs. You may use it for private study, scholarship, research or language learning purposes only