» » »

Ty Segall - The Floor Tabs

Artists:  A B C D E F G H I J K L M N O P Q R S T U V W X Y Z # 

The Floor Tabs

(ver. 1) Click to play this song!
Ty Segall
 Rating:
4.3/5 (10 votes)

 The Floor lessons Tabs too difficult? Try these video lessons and learn fast
 
                [Intro] At the very start just play the E chord a couple times.

e|-----3-55-3-----2-2-2--1-1-1-1-1-1------------------------------------------------------------|
B|-----3-55-3-5---2-2-2--1-1-1-1-1-1---------------Repeat 4 times-------------------------------|
G|--1-------------3-3-3--2-2-2-2-2-2------------------------------------------------------------|
D|--2-------------4-4-4--3-3-3-3-3-3------------------------------------------------------------|
A|--2-------------4-4-4--3-3-3-3-3-3------------------------------------------------------------|
E|--0-------------2-2-2--1-1-1-1-1-1------------------------------------------------------------|


[Verse 1]

e|--0-------------------8-----------0--------------8-------5------------------------------------|
B|--0-------------------8-----------0--------------8-------5------------------------------------|
G|--1--x6---------------9--x6-------1--x6----------9--x3---6--x3--------------------------------|
D|--2-------------------10----------2--------------10------7------------------------------------|
A|--2-------------------10----------2--------------10------7------------------------------------|
E|--0-------------------8-----------0--------------8-------5------------------------------------|
     "It speaks like a creep,        constantly under my floor"

e|--0-------------10--------------8-----------5------------0-0--10-10--8--8---5-5-5-------------|
B|--0-------------10--------------8-----------5------------0-0--10-10--8--8---5-5-5-------------|
G|--1--x6---------11--x3----------11--x3------6--x3--------1-1--11-11--11-11--6-6-6-------------|
D|--2-------------12--------------10----------7------------2-2--12-12--10-10--7-7-7-------------|
A|--2-------------12--------------10----------7------------2-2--12-12--10-10--7-7-7-------------|
E|--0-------------10--------------8-----------5------------0-0--10-10--8--8---5-5-5-------------|
     "Through the flesh and      through the bone no more"


e|--0-------------------8-----------0--------------8-------5------------------------------------|
B|--0-------------------8-----------0--------------8-------5------------------------------------|
G|--1--x6---------------9--x6-------1--x6----------9--x3---6--x3--------------------------------|
D|--2-------------------10----------2--------------10------7------------------------------------|
A|--2-------------------10----------2--------------10------7------------------------------------|
E|--0-------------------8-----------0--------------8-------5------------------------------------|
     "Speaking these things,        spilling onto my   floor"

e|--0-------------10--------------8-----------5------------0-0--10-10--8--8---5-5-5-------------|
B|--0-------------10--------------8-----------5------------0-0--10-10--8--8---5-5-5-------------|
G|--1--x6---------11--x3----------11--x3------6--x3--------1-1--11-11--11-11--6-6-6-------------|
D|--2-------------12--------------10----------7------------2-2--12-12--10-10--7-7-7-------------|
A|--2-------------12--------------10----------7------------2-2--12-12--10-10--7-7-7-------------|
E|--0-------------10--------------8-----------5------------0-0--10-10--8--8---5-5-5-------------|
   "In the      land I hear no    more,  no more"


[Chorus]

e|-----3-55-3-----2-2-2--1-1-1-1-1-1------------------------------------------------------------|
B|-----3-55-3-5---2-2-2--1-1-1-1-1-1---------------Repeat 4 times-------------------------------|
G|--1-------------3-3-3--2-2-2-2-2-2------------------------------------------------------------|
D|--2-------------4-4-4--3-3-3-3-3-3------------------------------------------------------------|
A|--2-------------4-4-4--3-3-3-3-3-3------------------------------------------------------------|
E|--0-------------2-2-2--1-1-1-1-1-1------------------------------------------------------------|


[Verse 2]

e|--0-------------------8-----------0-------------------8--------5------------------------------|
B|--0-------------------8-----------0-------------------8--------5------------------------------|
G|--1--x6---------------9--x6-------1--x6---------------11--x3---6--x3--------------------------|
D|--2-------------------10----------2-------------------10-------7------------------------------|
D|--2-------------------10----------2-------------------10-------7------------------------------|
E|--0-------------------8-----------0--------------------8-------5------------------------------|
     "It's             asleep.       And it's sleeping under the floor

e|--0-------------10--------------8-----------5------------0-0--10-10--8--8---5-5-5-------------|
B|--0-------------10--------------8-----------5------------0-0--10-10--8--8---5-5-5-------------|
G|--1--x6---------11--x3----------11--x3------6--x3--------1-1--11-11--11-11--6-6-6-------------|
D|--2-------------12--------------10----------7------------2-2--12-12--10-10--7-7-7-------------|
A|--2-------------12--------------10----------7------------2-2--12-12--10-10--7-7-7-------------|
E|--0-------------10--------------8-----------5------------0-0--10-10--8--8---5-5-5-------------|
     "If awake,    my thoughts i can't  ignore


e|--0-------------------8-----------0--------------8-------5------------------------------------|
B|--0-------------------8-----------0--------------8-------5------------------------------------|
G|--1--x6---------------9--x6-------1--x6----------9--x3---6--x3--------------------------------|
D|--2-------------------10----------2--------------10------7------------------------------------|
A|--2-------------------10----------2--------------10------7------------------------------------|
E|--0-------------------8-----------0--------------8-------5------------------------------------|
     "For now  i'll try,              I will try to be once more"

e|--0-------------10--------------8-----------5------------0-0--10-10--8--8---5-5-5-------------|
B|--0-------------10--------------8-----------5------------0-0--10-10--8--8---5-5-5-------------|
G|--1--x6---------11--x3----------11--x3------6--x3--------1-1--11-11--11-11--6-6-6-------------|
D|--2-------------12--------------10----------7------------2-2--12-12--10-10--7-7-7-------------|
A|--2-------------12--------------10----------7------------2-2--12-12--10-10--7-7-7-------------|
E|--0-------------10--------------8-----------5------------0-0--10-10--8--8---5-5-5-------------|
    "Be         alive and     live above the floor"


[Bridge]

e|--8---------10--------------------------------------------------------------------------------|
b|--8---------10--------------------------------------------------------------------------------|
G|--11--x3----11--x3---9---x3---------Repeat 4 times,-------------------------------------------|
D|--10--------12-------9--------------but on the last one---------------------------------------|
A|--10--------12-------7--------------hold the E chord for a bit then pause---------------------|
E|--8---------10-------0------------------------------------------------------------------------|
   "Finger    in my    brain"


[Outro]

e|-----[IMPROV]---2-2-2--1-1-1-1-1-1------------------------------------------------------------|
B|----------------2-2-2--1-1-1-1-1-1---------------Repeat 4 times-------------------------------|
G|--1-------------3-3-3--2-2-2-2-2-2------------------------------------------------------------|
D|--2-------------4-4-4--3-3-3-3-3-3---------------Ty solos in the pause inbetween the chords---|
A|--2-------------4-4-4--3-3-3-3-3-3-------------------so just improvise and it'll sound good---|
E|--0-------------2-2-2--1-1-1-1-1-1------------------------------------------------------------|

            
Submit corrections


        The Floor lessons Hard to play? Try these video lessons and learn fast The Floor lessons
        
↑ Back to top | Tablatures and chords for acoustic guitar and electric guitar, ukulele, drums are parodies/interpretations of the original songs. You may use it for private study, scholarship, research or language learning purposes only