» » »

Ty Segall - My Sunshine Chords

Artists:  A B C D E F G H I J K L M N O P Q R S T U V W X Y Z # 

My Sunshine Chords

(ver. 1) Click to play this song!
Ty Segall
 Rating:
4.3/5 (26 votes)

 My Sunshine lessons Tabs too difficult? Try these video lessons and learn fast
 
                [Intro] x3
E A G B

[Verse 1]
E    A          G        B
Just like every man is a dog
E    A        G      B
Life ain't no simple child
E          D      A
Some men are dogs all the
E    A       G     B
time
E     A    G      B
I can only try my best
E    A    G       B
Just like all the rest
E            D       A
Isn't poetry supposed to
E     A    G    B
rhyme?

[Chorus]
      A              N.C.           N.C.
Put a hole in my head...
   E    A    G    B
My sunshine!

[Verse 2]
E      A                 G       B
I hope you don't have me wrong
E      A              G       B
I hope you people are strong
E            D       A
Isn't poetry supposed to
E     A    G    B
rhyme?
E     A    G      B
I can only try my best
E    A    G       B
Just like all the rest
E            D       A
Some men are dogs all the
E    A       G     B
time

[Chorus]
      A             N.C.
Put a hole in my head...
 
[Solo] x2
E    A    G    B

e|-----------------------------------------------|
B|-------------------8---------------------------|
G|-----7-9--7-9-7-9----9--7-9-7-9-7-9-7-9-7-9----|
D|-5/9-------------------------------------------|
A|-----------------------------------------------|
E|-----------------------------------------------|

e|-----------------------------------------------------------|
B|-8-10b--10b-8--8-------------------------------------------|
G|--------------9---9-7--9-7-9-------------------------------|
D|-----------------------------9-----------------------------|
A|----------------------------------7--7-5-7-----7--7-5-7----|
E|-------------------------------------------7------------7--|

E
            
Submit corrections


        My Sunshine lessons Hard to play? Try these video lessons and learn fast My Sunshine lessons
        
↑ Back to top | Tablatures and chords for acoustic guitar and electric guitar, ukulele, drums are parodies/interpretations of the original songs. You may use it for private study, scholarship, research or language learning purposes only