» » »

Ty Segall - Fist Heart Mighty Dawn Dart Chords

Artists:  A B C D E F G H I J K L M N O P Q R S T U V W X Y Z # 

Fist Heart Mighty Dawn Dart Chords

(ver. 1) Click to play this song!
Ty Segall
 Rating:
4.4/5 (7 votes)

 Fist Heart Mighty Dawn Dart lessons Tabs too difficult? Try these video lessons and learn fast
 
                [Intro]
G#m

[Verse 1]
G#m                      B
Fist heart mighty dawn dart
                E               A
in the same way our slain of yours
G#m                      B
Stone eyes dig for wealth lies
    E               A        E
In some way our fate is one, na nana naaa

[Chorus]
B
Funny how the day comes (x2)
C#m       E              B    
Funny how the day come slow
B
Funny how the day comes (x2)
C#m    E       B        A
Funny how the day comes slowowow

[Verse 2]
G#m                      B
Fist heart mighty dawn dart
             E             A
At a glance our dance is one
G#m                    B
Sun liege by your star trees
  E                   A                 E
Could you please heart cleanse our shores, na nananaa

[Outro]
(With Noise)
[Solo]
e|-----------------------------------------------|
B|-----------------------------------------------|
G|--6b--6b--6br-4-----------4--------------------|
D|-----------------6--6-4-6----6b----------------|
A|-----------------------------------------------|
E|-----------------------------------------------|

e|---------------------------------------------------------|
B|---------------------------------------------------------|
G|---------------------------------------------------------|
D|-6-6--6-6-4-6-6-4----4---4-------------------------------|
A|-------------------6---6---6b--6pb-6pb--6br--4-----------|
E|---------------------------------------------------------|

            
Submit corrections


        Fist Heart Mighty Dawn Dart lessons Hard to play? Try these video lessons and learn fast Fist Heart Mighty Dawn Dart lessons
        
↑ Back to top | Tablatures and chords for acoustic guitar and electric guitar, ukulele, drums are parodies/interpretations of the original songs. You may use it for private study, scholarship, research or language learning purposes only