» » »

Type O Negative - We Hate Everyone Tabs

Artists:  A B C D E F G H I J K L M N O P Q R S T U V W X Y Z # 

We Hate Everyone Tabs

(ver. 2) Click to play this song!
Type O Negative
 Rating:
4.4/5 (14 votes)

 We Hate Everyone lessons Tabs too difficult? Try these video lessons and learn fast
 
                
[Intro] 

B |---------------------------------------------------------------------------|
F#|---------------------------------------------------------------------------|
D |---------------------------------------------------------------------------|
A |-9---9-9--9-7-6-4-2----9---9-9--9--7--6--4--2------------------------------|
E |-7-9-7-7--7-5-4-2-0----7-9-7-7--7--5--4--2--0------------------------------| (x4)
B |---7---------------------7-------------------------------------------------| 

[Verse] 

B |---------------------------------------------------------------------------|
F#|---------------------------------------------------------------------------|
D |---------------------------------------------------------------------------|
A |-9---9-9--9-7-6-4-2----9---9-9--9--7--6--4--2------------------------------|
E |-7-9-7-7--7-5-4-2-0----7-9-7-7--7--5--4--2--0------------------------------| (x3)
B |---7---------------------7-------------------------------------------------| 

B |---------------------------------------------------------------------------|
F#|---------------------------------------------------------------------------|
D |--------------9-7-9--------------------------------------------------------|
A |-9---9-9--9-7-7-5-7-7------------------------------------------------------|
E |-7-9-7-7--7-5-------5------------------------------------------------------| (x1)
B |---7-----------------------------------------------------------------------| 

[Chorus]

B |---------------------------------------------------------------------------|
F#|---------------------------------------------------------------------------|
D |---------------------------------------------------------------------------|
A |--7~-------9~---12~---14~---9~---7~-------9~---12~--15-14-12-9~----7-8-----|
E |--5~--7~---7~---10~---12~---7~---5~--7~---7~---10~--13-12-10-7~--7-5-6-----|
B |------5~-----------------------------5---------------------------5---------|

[Verse] 

B |---------------------------------------------------------------------------|
F#|---------------------------------------------------------------------------|
D |---------------------------------------------------------------------------|
A |-9---9-9--9-7-6-4-2----9---9-9--9--7--6--4--2------------------------------|
E |-7-9-7-7--7-5-4-2-0----7-9-7-7--7--5--4--2--0------------------------------| (x3)
B |---7---------------------7-------------------------------------------------| 

B |---------------------------------------------------------------------------|
F#|---------------------------------------------------------------------------|
D |--------------9-7-9--------------------------------------------------------|
A |-9---9-9--9-7-7-5-7-7------------------------------------------------------|
E |-7-9-7-7--7-5-------5------------------------------------------------------| (x1)
B |---7-----------------------------------------------------------------------| 

[Chorus]

B |---------------------------------------------------------------------------|
F#|---------------------------------------------------------------------------|
D |---------------------------------------------------------------------------|
A |--7~-------9~---12~---14~---9~---7~-------9~---12~--15-14-12-9~----7-8-----|
E |--5~--7~---7~---10~---12~---7~---5~--7~---7~---10~--13-12-10-7~--7-5-6-----|
B |------5~-----------------------------5---------------------------5---------|

[Verse] 

B |---------------------------------------------------------------------------|
F#|---------------------------------------------------------------------------|
D |---------------------------------------------------------------------------|
A |-9---9-9--9-7-6-4-2----9---9-9--9--7--6--4--2------------------------------|
E |-7-9-7-7--7-5-4-2-0----7-9-7-7--7--5--4--2--0------------------------------| (x3)
B |---7---------------------7-------------------------------------------------| 

B |---------------------------------------------------------------------------|
F#|---------------------------------------------------------------------------|
D |--------------9-7-9--------------------------------------------------------|
A |-9---9-9--9-7-7-5-7-7------------------------------------------------------|
E |-7-9-7-7--7-5-------5------------------------------------------------------| (x1)
B |---7-----------------------------------------------------------------------| 

[Bridge Part 1] 
[Distortion feedback on the beginning] 
This moment is very individual, but for me the best way to play it is mute strings 
above first or second fret. 

B |---------------------------------------------------------------------------|
F#|---------------------------------------------------------------------------|
D |---------------------------------------------------------------------------|
A |-----------------------------------11~--6~--9~--5~-------------------------|
E |--X-X-X-X-X-X-X-X-X-X-X-X-X-X-X-X--9~---4~--7~--3~-[PLECTRUM STRINGS SLIDE]| (x4)
B |--X-X-X-X-X-X-X-X-X-X-X-X-X-X-X-X------------------------------------------|

[Bridge Part 2] The most important part of this song, it's 100% correct here.
Believe me :)

B |---------------------------------------------------------------------------|
F#|---------------------------------------------------------------------------|
D |-----9-----8------6-----4-----4h6------6-----6----------6-----6------------|
A |---6-----6------6-----6-----6--------4-----4-----4----4-----4-----4--------|
E |-4-----4------4-----4-----4--------4-----4-----4---------------------------| (x4)
B |----------------------------------------------------2-----0-----2----------|

[Bridge Part 2] 

B |---------------------------------------------------------------------------|
F#|---------------------------------------------------------------------------|
D |-----6-----6-----6-----6-----6-6-----4-----4---4-----4-----4---4-----------|
A |-----6-----6-----6-----6-----6-6-----4-----4---4-----4-----4---4-----------|
E |-4-4---4-4---4-4---4-4---4-4-----2-2---2-2---2-----------------------------| (x3)
B |-------------------------------------------------2-2---2-2---2-------------|

B |---------------------------------------------------------------------------|
F#|---------------------------------------------------------------------------|
D |-----6-----6-----6-----6-----6-6-----4-----4---4-----6----6----------------|
A |-----6-----6-----6-----6-----6-6-----4-----4---4---4----4----4-------------|
E |-4-4---4-4---4-4---4-4---4-4-----2-2---2-2---2-----------------------------| (x1)
B |-------------------------------------------------2----0----2---------------|

[Bridge Part II] 

B |---------------------------------------------------------------------------|
F#|---------------------------------------------------------------------------|
D |-----9-----8------6-----4-----4h6------6-----6----------6-----6------------|
A |---6-----6------6-----6-----6--------4-----4-----4----4-----4-----4--------|
E |-4-----4------4-----4-----4--------4-----4-----4---------------------------| (x2)
B |----------------------------------------------------2-----0-----2----------|

[Bridge Part 3]

B |---------------------------------------------------------------------------|
F#|---------------------------------------------------------------------------|
D |-----6-----6-----6-----6-----6-6-----4-----4---4-----4-----4---4-----------|
A |-----6-----6-----6-----6-----6-6-----4-----4---4-----4-----4---4-----------|
E |-4-4---4-4---4-4---4-4---4-4-----2-2---2-2---2-----------------------------| (x3)
B |-------------------------------------------------2-2---2-2---2-------------|

B |---------------------------------------------------------------------------|
F#|---------------------------------------------------------------------------|
D |-----6-----6-----6-----6-----6-6-----4-----4---4-----6----6----------------|
A |-----6-----6-----6-----6-----6-6-----4-----4---4---4----4----4-------------|
E |-4-4---4-4---4-4---4-4---4-4-----2-2---2-2---2-----------------------------| (x1)
B |-------------------------------------------------2----0----2---------------|

[Bridge Part 4]

B |---------------------------------------------------------------------------|
F#|---------------------------------------------------------------------------|
D |---------------------------------------------------------------------------|
A |---------------------------------------------------------------------------|
E |--7-x-x-7-x-x-7-x-x-7/11/10-9-x-x-9-x-x-9-x-x-9/6--------------------------|
B |--5-x-x-5-x-x-5-x-x-5/9-/8--7-x-x-7-x-x-7-x-x-7/4--------------------------|

B |---------------------------------------------------------------------------|
F#|---------------------------------------------------------------------------|
D |---------------------------------------------------------------------------|
A |---------------------------------------------------------------------------|
E |--7-x-x-7-x-x-7-x-x-7/11/10-9-x-x-9-8-7-6--[PLECTRUM STRINGS SLIDE]--------|
B |--5-x-x-5-x-x-5-x-x-5/9-/8--7-x-x-7-6-5-4----------------------------------|

[Bridge Part 2] 

B |---------------------------------------------------------------------------|
F#|---------------------------------------------------------------------------|
D |-----9-----8------6-----4-----4h6------6-----6----------6-----6------------|
A |---6-----6------6-----6-----6--------4-----4-----4----4-----4-----4--------|
E |-4-----4------4-----4-----4--------4-----4-----4---------------------------| (x4)
B |----------------------------------------------------2-----0-----2----------|

[Bridge Last Part] The whole part is just feedback from guitar, but I made it
in tune so You can mess around with this. :)

B |---------------------------------------------------------------------------|
F#|---------------------------------------------------------------------------|
D |---------------------------------------------------------------------------|
A |---------------------------------------------------------------------------|
E |--7-x-x-7-x-x-7-x-x-7-x-x-9-x-x-9-x-x-9-x-x-9-x-x-7-x-x-7-x-x-7-x-x-7------|
B |--5-x-x-5-x-x-5-x-x-5-x-x-7-x-x-7-x-x-7-x-x-7-x-x-5-x-x-5-x-x-5-x-x-5------|

B |---------------------------------------------------------------------------|
F#|---------------------------------------------------------------------------|
D |---------------------------------------------------------------------------|
A |---------------------------------------------------------------------------|
E |--x-x-6-x-x-6-x-x-9-x-9~---------------------------------------------------|
B |--x-x-4-x-x-4-x-x-7-x-7~---------------------------------------------------|

[Outro]

B |---------------------------------------------------------------------------|
F#|---------------------------------------------------------------------------|
D |---------------------------------------------------------------------------|
A |-9---9-9--9-7-6-4-2----9---9-9--9--7--6--4--2------------------------------|
E |-7-9-7-7--7-5-4-2-0----7-9-7-7--7--5--4--2--0------------------------------| (x1)
B |---7---------------------7-------------------------------------------------| 

B |---------------------------------------------------------------------------|
F#|---------------------------------------------------------------------------|
D |---------------------------------------------------------------------------|
A |--7~-------9~---12~---14~---9~---------------------------------------------|
E |--5~--7~---7~---10~---12~---7~---------------------------------------------| (x2)
B |------5~-------------------------------------------------------------------|

B |---------------------------------------------------------------------------|
F#|---------------------------------------------------------------------------|
D |---------------------------------------------------------------------------|
A |--7~-------9~---12~---14~---9~---7~-------9~---12~--15-14-12-9~------------|
E |--5~--7~---7~---10~---12~---7~---5~--7~---7~---10~--13-12-10-7~------------|
B |------5~-----------------------------5-------------------------------------|

B |---------------------------------------------------------------------------|
F#|---------------------------------------------------------------------------|
D |---------------------------------------------------------------------------|
A |-9---9-9--9-7-6-4-2----9---9-9--9--7--6--4--2------------------------------|
E |-7-9-7-7--7-5-4-2-0----7-9-7-7--7--5--4--2--0------------------------------| (x2)
B |---7---------------------7-------------------------------------------------| 

B |---------------------------------------------------------------------------|
F#|---------------------------------------------------------------------------|
D |---------------------------------------------------------------------------|
A |--8-9-11-6-9/8--8/14~~-----------------------------------------------------|
E |--6-7-9--4-7/6--6/12~~-----------------------------------------------------|
B |---------------------------------------------------------------------------|
            
Submit corrections


        We Hate Everyone lessons Hard to play? Try these video lessons and learn fast We Hate Everyone lessons
        
↑ Back to top | Tablatures and chords for acoustic guitar and electric guitar, ukulele, drums are parodies/interpretations of the original songs. You may use it for private study, scholarship, research or language learning purposes only