Home » T » Tyler Joseph »

Tyler Joseph - Just Like Yesterday Tabs

Artists:  A B C D E F G H I J K L M N O P Q R S T U V W X Y Z # 

Just Like Yesterday Tabs

(ver. 1) Click to play this song!
Tyler Joseph
 Rating:
2.6/5 (26 votes)
                Tuning:DADGHe
Capo on 1!
All tabs are relative to the capo

e|---------------------------------------------------------------------------|
B|----------------------------------------3----------------------------------|
G|----0-----------0-----------0-----------0----------------------------------|
D|--2-4-4-------2-4-4-------2-4-4-------2------------------------------------|
A|------------3-----------0--------------------------------------------------|
D|2------------------------------------0-------------------------------------|

e|---------------------------------------------------------------------------|
B|---------------------------------------------------------------------------|
G|----0-----------0-----------0---------0------------------------------------|
D|--2-4-4-------2-4-4-------2-4-4-------4------------------------------------|
A|------------3-----------0-----------0--------------------------------------|
D|2--------------------------------------------------------------------------|
            
Submit corrections

↑ Back to top | Tablatures and chords for acoustic guitar and electric guitar, ukulele, drums are parodies/interpretations of the original songs. You may use it for private study, scholarship, research or language learning purposes only