Home » T » Tyler Joseph »

Tyler Joseph - Hear Me Now Tabs

Artists:  A B C D E F G H I J K L M N O P Q R S T U V W X Y Z # 

Hear Me Now Tabs

(ver. 1) Click to play this song!
Tyler Joseph
 Rating:
4.2/5 (30 votes)
                Guitar line only starts at 2:05:

E|------------|
B|------------|
G|--12b15b12--|
D|------------|
A|------------|
E|------------|

2:15:

E|------------------------------------------------------------------------------------|
B|-------------------15--17-------------------15--17-------------------15--17--17b17--|
G|---------13h15h17-----------------13h15h17-----------------13h15h17-----------------|
D|--13h15--------------------13h15--------------------13h15---------------------------|
A|------------------------------------------------------------------------------------|
E|------------------------------------------------------------------------------------|

2:24

E|----------------------------------------------------------------------------------------|
B|-------------------15--17-------------------15--17-------------------15--17--17b17--15--|
G|---------13h15h17-----------------13h15h17-----------------13h15h17---------------------|
D|--13h15--------------------13h15--------------------13h15-------------------------------|
A|----------------------------------------------------------------------------------------|
E|----------------------------------------------------------------------------------------|

2:34:

E|------------------------------------------------------------------------------------|
B|-------------------15--17-------------------15--17-------------------15--17--17b17--|
G|---------13h15h17-----------------13h15h17-----------------13h15h17-----------------|
D|--13h15--------------------13h15--------------------13h15---------------------------|
A|------------------------------------------------------------------------------------|
E|------------------------------------------------------------------------------------|

2:44:

E|----------------------------------------------------------------------------------------|
B|-------------------15--17-------------------15--17-------------------15--17--17b17--15--|
G|---------13h15h17-----------------13h15h17-----------------13h15h17---------------------|
D|--13h15--------------------13h15--------------------13h15-------------------------------|
A|----------------------------------------------------------------------------------------|
E|----------------------------------------------------------------------------------------|

2:53:

E|------------|
B|------------|
G|--12b15b12--|
D|------------|
A|------------|
E|------------|
            
Submit corrections

↑ Back to top | Tablatures and chords for acoustic guitar and electric guitar, ukulele, drums are parodies/interpretations of the original songs. You may use it for private study, scholarship, research or language learning purposes only